PrimaNota.ru - самый крупный в мире бесплатный архив песенных текстов, аккордов, табулатур и нот


Prince - Lady Cab Driver - текст песни, бас-таба, видео

Регистрация Запомнить меня
Войти через:  Facebook Google Twitter Vk Yandex Mail.ru

Prince - Lady Cab Driver - текст песни, бас-таба, видео

Печатать
Просмотров: 61
Авторы музыки: Prince
Авторы текста: Prince
                                 Lady Cab Driver
                                      Prince

Bass                                                              Prince 

As played by Prince

Slap throughout

Intro

10 Bars Rest

|-------2----------------|-----------------|-------2----------------|-----------------|
|------------------------|-----------------|------------------------|-----------------|
|-2p0-x----x-------------|-----------------|-2p0-x----x-------------|-----------------|
|------------x-x-x-x-x-x-|-0---0-----2---5-|------------x-x-x-x-x-x-|-0---0-----x-x---|
  S S S E. E S S E S S E   E E E E E Q   E   S S S E. E S S E S S E   E E E E E S S Q

|-------2----------------|-----------------|-------2----------------|-----------------|
|------------------------|-----------------|------------------------|-----------------|
|-2p0-x----x-------------|-----------------|-2p0-x----x-------------|-----------------|
|------------x-x-x-x-x-x-|-0---0-----2---5-|------------x-x-x-x-x-x-|-2---2-----------|
  S S S E. E S S E S S E   E E E E E Q   E   S S S E. E S S E S S E   E E E E H

Verse 1

|-------2----------------|-----------------|-------2----------------|-------------------|
|------------------------|-----------------|------------------------|-------------------|
|-2p0-x----x-------------|-----------------|-2p0-x----x-------------|-------------------|
|------------x-x-x-x-x-x-|-0---0-----2---5-|------------x-x-x-x-x-x-|-0---0---x-x-x-x-x-|
  S S S E. E S S E S S E   E E E E E Q   E   S S S E. E S S E S S E   E E E E E S S E E

|-------2--------------|-----------------|-------2--------------|-----------------|
|----------------------|-----------------|----------------------|-----------------|
|-2p0-x----x-----------|-----------------|-2p0-x----x-----------|-----------------|
|------------x-x-x-x-x-|-0---0-----2---5-|------------x-x-x-x-x-|-2---2-----------|
  S S S E. E S S E E E   E E E E E Q   E   S S S E. E S S E E E   E E E E H

Verse 2

|-------2----------------|-----------------|-------2----------------|-------------------|
|------------------------|-----------------|------------------------|-------------------|
|-2p0-x----x-------------|-----------------|-2p0-x----x-------------|-------------------|
|------------x-x-x-x-x-x-|-0---0-----2---5-|------------x-x-x-x-x-x-|-0---0---x-x-x-x---|
  S S S E. E S S E S S E   E E E E E Q   E   S S S E. E S S E S S E   E E E E E S S E E

|-------2--------------|-----------------|-------2--------------|-----------9h11p9-|
|----------------------|-----------------|----------------------|------------------|
|-2p0-x----x-----------|-----------------|-2p0-x----x-----------|------------------|
|------------x-x-x-x-x-|-0---0-----2---5-|------------x-x-x-x-x-|-2---2------------|
  S S S E. E S S E E E   E E E E E Q   E   S S S E. E S S E E E   E E E E E S E. E

Verse 3

|-7h9p7----------------|-------9-9-------|-------2----------------|-------------------|
|----------------------|-----------------|------------------------|-------------------|
|----------------------|-----------------|-2p0-x----x-------------|-------------------|
|--------7-x-x-x-x-x-x-|-0---0-----2---5-|------------x-x-x-x-x-x-|-0---0---x-x-x-x---|
  E S E. E S S E S S E   E E E E E Q   E   S S S E. E S S E S S E   E E E E E S S E E

|-------2----------------|-------------------|-------2--------------|-----------------|
|------------------------|-------------------|----------------------|-----------------|
|-2p0-x----x-------------|-------------------|-2p0-x----x-----------|-----------------|
|------------x-x-x-x-x-x-|-0---0---x-x-2---5-|------------x-x-x-x-x-|-2---2-----------|
  S S S E. E S S E S S E   E E E S S E Q   E   S S S E. E S S E E E   E E E E H

Verse 4

|---------------------|-----------------|-------2----------------|-----------------|
|---------------------|-----------------|------------------------|-----------------|
|-2---2---------------|-----------------|-2p0-x----x-------------|-----------------|
|---0---x-x---x-x-----|-0---0-----2---5-|------------x-x-x-x-x-x-|-0---0-------5\--|
  E S E S E S S E Q     E E E E E Q   E   S S S E. E S S E S S E   E E E E Q   Q  

|-------2----------------|-----------------|-----------------|-----2h3h4-------|
|------------------------|-----------------|---------2---3---|-2---------------|
|-2p0-x----x-------------|-----------------|-2---5-----------|---2-------------|
|------------x-x-x-x-x-x-|-0---0-----2---5-|-----------------|-----------------|
  S S S E. E S S E S S E   E E E E E Q   E   Q   Q   Q   Q     E E S S E H 

Verse 5

|-----2----------------|-----------------|-------2----x-x---x-x---|-----------------|
|-2-x------------------|-----------------|----------------x-----x-|-----------------|
|--------x-------------|-----------------|-2p0-x----x-------------|-----------------|
|----------x-x-x-x-x-x-|-0---0-----2---5-|------------------------|-0---0-----x-x---|
  E S E. E S S E S S E   E E E E E Q   E   S S S E. E S S E S S E   E E E E E S S Q

|-------2----x-x---x-x---|-----------------|--------/9-------|------------------|
|----------------x-----x-|-----------------|-------------7\--|------------------|
|-2p0-x----x-------------|-----------------|-----------------|------------------|
|------------------------|-0---0-----2---5-|-----------------|-2---2-----2/14\2-|
  S S S E. E S S E S S E   E E E E E Q   E   H       Q   Q     E E E E E E E  E

Verse 6

|-----2----------------|-----------------|-------2----------------|-----------------|
|----------------------|-----------------|------------------------|-----------5/7-7\|
|-2-x----x-------------|-----------------|-2p0-x----x-------------|-----------------|
|----------x-x-x-x-x-x-|-0---0-----2---5-|------------x-x-x-x-x-x-|-0---0-----3/7---|
  E S E. E S S E S S E   E E E E E Q   E   S S S E. E S S E S S E   E E E E E S S Q

|-------2----------------|-----------------|-------2--------------|-----------------|
|------------------------|-----------------|----------------------|-----------------|
|-2p0-x----x-------------|-----------------|-2p0-x----x-----------|-----------------|
|------------x-x-x-x-x-x-|-0---0-----2---5-|------------x-x-x-x-x-|-2---2-----------|
  S S S E. E S S E S S E   E E E E E Q   E   S S S E. E S S E S E   E E E E H

Interlude 1

|-------------------|-----------------|-----------------|-----------------|
|-------------------|-----------------|-----------------|-----------------|
|-------------------|-----------------|-----------------|-----------------|
|-7\------2-2-2-2---|-----------------|-----------------|-----------------|
  H     E S S S S E   W                 W                 W

|-----------------|-----------------|---------------|-------------------|
|-----------------|-----------------|---------------|-------------------|
|-----------------|-----------------|---------------|-------------------|
|-7\--------------|-----------------|---------------|---------2-2-2-2---|
  H       H         W                 W               H     E S S S S E

Synth Solo

|----------------------|-----------------|-------2--------------|-----------------|
|----------------------|-----------------|----------------------|-----------------|
|-0-x-0-x--------------|-----------------|-2p0-x----x-----------|-----------------|
|----------x-x-x-x-x-x-|-0---0-----2---5-|------------x-x-x-x-x-|-0---0-----------|
  E E E E  S S E S S E   E E E E E Q   E   S S S E. E S S E E E   E E E E E E E E

|-------2--------------|-----------------|-------2--------------|-----------------|
|----------------------|-----------------|----------------------|-----------------|
|-2p0-x----x-----------|-----------------|-2p0-x----x-----------|-----------------|
|------------x-x-x-x---|-0---0-----2---5-|------------x-x-x-x---|-2---2---7\------|
  S S S E. E S S E E E   E E E E E Q   E   S S S E. E S S E E E   E E E E H

Verse 7

|-------2----------------|-----------------|-------2----------------|---------x-x-x-----|
|------------------------|-----------------|------------------------|---------------x-x-|
|-2p0-x----x-------------|-----------------|-2p0-x----x-------------|-------------------|
|------------x-x-x-x-x-x-|-0---0-----2---5-|------------x-x-x-x-x-x-|-0---0-------------|
  S S S E. E S S E S S E   E E E E E Q   E   S S S E. E S S E S S E   E E E E E S S E E

|-------2----------------|-----------------|-9-------7---9---|-7---9-10-11-----|
|------------------------|-----------------|-----------------|-----------------|
|-2p0-x----x-------------|-----------------|-----------------|-----------------|
|------------x-x-x-x-x-x-|-0---0-----------|-----------------|-----------------|
  S S S E. E S S E S S E   E E E E H         H       Q   Q     Q   E E  E E Q

Interlude 2

|-----------------|-----------------|-----------------|-----------------|
|-----------------|-----------------|-----------------|-----------------|
|-----------------|-----------------|-----------------|-----------------|
|-7\--------------|-----------------|-7\--------------|-----------------|
  H      H          W                 H      H          W

|-----------------|-----------------|-----------------|-----------7---7-|
|-----------------|-----------------|-----------------|-----------------|
|-----------------|-----------------|-----------------|-----------------|
|-7\--------------|-----------------|-7\--------------|-----------------|
  H      H          W                 H      H          H       E E E E

Spoken Word

|-----2----------------|-----------------|-----2----------------|-----------------|
|----------------------|-----------------|----------------------|-----------------|
|-2-x----x-------------|-----------------|-2-x----x-------------|-----------------|
|----------x-x-x-x-x-x-|-0---0-----2---5-|----------x-x-x-x-x-x-|-0---0-----------|
  E S E. E S S E S S E   E E E E E Q   E   E S E. E S S E S S E   E E E E H

|-----2----------------|-------------------|-----2----------------|-----------------|
|----------------------|-------------------|----------------------|-----------------|
|-2-x----x-------------|-------------------|-2-x----x-------------|-----------------|
|----------x-x-x-x-x-x-|-0---0-----2-2---5-|----------x-x-x-x-x-x-|-2---2-----------|
  E S E. E S S E S S E   E E E E S S Q   E   E S E. E S S E S S E   E E E E H

|-----2----------------|-----------------|-----2----------------|-----------------|
|----------------------|-----------------|----------------------|-----------------|
|-2-x----x-------------|-----------------|-2-x----x-------------|-----------------|
|----------x-x-x-x-x-x-|-0---0-----2---5-|----------x-x-x-x-x-x-|-0---0-----------|
  E S E. E S S E S S E   E E E E E Q   E   E S E. E S S E S S E   E E E E H

|-----2----------------|-----------------|-----2----------------|-----------------|
|----------------------|-----------------|----------------------|-----------------|
|-2-x----x-------------|-----------------|-2-x----x-------------|-----------------|
|----------x-x-x-x-x-x-|-0---0-----2---5-|----------x-x-x-x-x-x-|-2---2-----------|
  E S E. E S S E S S E   E E E E E Q   E   E S E. E S S E S S E   E E E E H

|-----2----------------|-----------------|-----2----------------|---------------9---|
|----------------------|-----------------|----------------------|-------------------|
|-2-x----x-------------|-----------------|-2-x----x-------------|-------------------|
|----------x-x-x-x-x-x-|-0---0-----2---5-|----------x-x-x-x-x-x-|-0---0---x-x-------|
  E S E. E S S E S S E   E E E E E Q   E   E S E. E S S E S S E   E E E E S S E Q

|-----2----------------|---------------------|-----2--------------|-----------------|
|----------------------|---------------------|----------x---------|-----------------|
|-2--------------------|---------------------|-2-x----x---x-x-----|-----------------|
|----------x-x-x-x-x-x-|-0---0---x-x---2---5-|----------------x-x-|-2---2-----------|
  E S E. E S S E S S E   E E E S S S S Q   E   E S E. E S S E E E   E E E E H

|-----2----------------|-----------------|-----2--------------|-----------------|
|------------------x-x-|-----------------|--------------------|-----------------|
|-2-x----x-------------|-----------------|-2-x----x-----------|-----------------|
|----------x-x-x-x-----|-0---0-----------|----------x-x-x-x-x-|-0---0-----------|
  E S E. E S S E S S E   E E E E H         E S E. E S S E E E   E E E E H

|-----2----------------|-------------------|-----2--------------|-------------------|
|----------x-----x-----|-------------------|--------------------|-------------------|
|-2-x----x---x-----x---|---------5-7-7-----|-2-x----x-----------|---------2-0-0-5\--|
|--------------x-----x-|-0---0---------x---|----------x-x-x-x-x-|-2---2-------------|
  E S E. E S S E S S E   E E E E S S E E E   E S E. E S S E E E   E E E E S S E Q

|-----2------------|-----------------|-----2----------------|-------------------|
|------------------|-----------------|----------------------|-------------------|
|-2----------------|-----------------|-2-x----x-------------|-------------------|
|----------5\------|-0---0-----2---5-|----------x-x-x-x-x-x-|-0---0---x-x-x-5\--|
  E S E. E H         E E E E E Q   Q   E S E. E S S E S S E   E E E E S S E Q

|-----2--------------|-----------------|-----2--------------|-----------------|
|--------------------|-----------------|--------------------|-----------------|
|---x----x-----------|-----------------|-2-x----x-----------|-----------------|
|----------x-x-x-x---|-0---0-----2---5-|----------x-x-x-x-x-|-2---2-----------|
  E S E. E S S E Q     E E E E E Q   E   E S E. E S S E E E   E E E E H

Instrumental Part 1

|-2h4p2-------------|-----------------|-2h4p2-------------|-----------------|
|-------------------|-----------------|-------------------|-----------------|
|-----------x-x-----|-----------------|-----------x-x-----|-----------------|
|---------------x-x-|-----------------|---------------x-x-|-----------------|
  E S E. E. S E E E   W                 E S E. E. S E E E   W               

|-2h4p2-------------|-----------------|-2h4p2-------------|-----------------|
|-------------------|-----------------|-------------------|-----------------|
|-----------x-x-----|-----------------|-----------x-x-----|-----------------|
|---------------x-x-|-----------------|---------------x-x-|-2---2---5\------|
  E S E. E. S E E E   W                 E S E. E. S E E E   E E E E H      

|-2h4p2-------------|-----------------|-2h4p2-------------|-----------------|
|-------------------|-----------------|-------------------|-----------------|
|-----------x-x-----|-----------------|-----------x-x-----|-----------------|
|---------------x-x-|-----------------|---------------x-x-|-----------------|
  E S E. E. S E E E   W                 E S E. E. S E E E   W               

|-----------------|-----------------|-----------------|-----------------|
|-----------------|-----------------|-----------------|-----------------|
|-2\--------------|---------------2-|-2-2-2-----------|-----------------|
|-----------------|-----------------|-----------------|-----------------|
  H       H         H.          E E   S E E E. H        W

|-----------------|-----------------|-----------------|--------------9\-|
|-----------------|-----------------|-----------------|-----------------|
|-2\--------------|---------------2-|-2-2-2-----------|-----------------|
|-----------------|-----------------|-----------------|-----------------|
  H       H         H.          E E   S E E E. H        H        Q   Q

Instrumental Part 2

|---------------------|---------------------|---------------------|---------------------|
|-----7---------------|---------------------|-----7---------------|---------------------|
|---------------------|---------------------|---x-----------------|---------------------|
|-7-------x-x-x-x-x-x-|-7---7---x-x-x-x-x-x-|-7-------x-x-x-x-x-x-|-7---7---x-x-x-x-x-x-|
  E E E E S S S S E E   E E E E S S S S E E   E E E E S S E S S E   E E E E S S E S S E

|---------------------|-----------------6-4-|-----------------------|---------------------|
|-----7---------------|---------------------|-------7---------------|---------------------|
|---------------------|---------------------|-----------------------|---------------------|
|-7-------x-x-x-x-x-x-|-7---7---x-x-x-------|-x-x-x-----x-x-x-x-x-x-|-7---7---x-x-x---x-x-|
  E E E E S S E S S E   E E E E S S E E E E   S S E E E S S E S S E   E E E E E S E S S S


|---------------------|-------------------|-----------------------|---------------9h7-|
|-----7---------------|-------------------|-----7-----------------|-------------------|
|---------------------|-------------0-4-2-|-----------------------|-------------------|
|-7-------x-x-x-x-x-x-|-7---7---0-2-------|-7-------x-x-x-x-x-x-x-|-7---7---x---------|
  E E E E S S E S S E   E E E S E S E E E   E E E E E S S S S S S   E E E E Q   E S S

|-----------------------|---------------------|---------------------|-----------------|
|-------7---------------|---------------------|-----7---------------|-----------------|
|-----------------------|---------------------|---------------------|-2---2-------4\--|
|-x-x-x-----x-x-x-x-x-x-|-7---7---x-x-x-x-x-x-|-7-------x-x-x-x-x-x-|-----------------|
  S S E E E S S E S S E   E E E E S S E S S E   E E E E S S E S S E   E E E E Q   E E

|-----2-----------------|-2---2-----------|
|-2h4-------------------|-----------------|
|-----------------------|-----------------|
|-----------x-x-x-x-x-x-|-----------------|
  S S E Q   E S S E S S   E E E E H

Instrumental Part 3

|---------------------|-----------------|---------------------|-----------------|
|-----7---------------|-----------------|-----7---------------|-----------------|
|---------------------|-----------------|---------------------|-----------------|
|-7-------x-x-x-x-x-x-|-0---0-----2---5-|-7-------x-x-x-x-x-x-|-0---0--0--------|
  E E E E S S E S S E   E E E E E Q   E   E E E E S S E S S E   E E E. E. E Q

|----------------------|-----------------|----------------------|-----------------|
|-----7----------------|-----------------|-----7----------------|-----------------|
|----------------------|-----------------|----------------------|-------------2\--|
|-7-x----x-x-x-x-x-x-x-|-0---0-----2---5-|-7-x----x-x-x-x-x-x-x-|-2---2---2-------|
  E S E. E S S E S S E   E E E E E Q   E   E S E. E S S E S S E   E E E E E E Q

|---------------------|-----------------|---------------------|-----------------|
|-----7---------------|-----------------|-----7---------------|-----------------|
|---------------------|-----------------|---------------------|-----------------|
|-7-------x-x-x-x-x-x-|-0---0-----2---5-|-7-------x-x-x-x-x-x-|-0---0---------5-|
  E E E E S S E S S E   E E E E E Q   E   E E E E S S E S S E   E E E E E Q   E


|---------------------|-----------------|---------------------|-----------------|
|-----7---------------|-----------------|-----7---------------|--------/2-------|
|---------------------|-----------------|---------------------|-------------4\--|
|-7-------x-x-x-x-x-x-|-0---0-----2---0-|-7-------x-x-x-x-x-x-|-2---2-----------|
  E E E E S S E S S E   E E E E E Q   E   E E E E S S E S S E   E E E E E E E E

Guitar Break

4 Bars Rest

|-----------------|-----------------|-----------------|-----------------|
|-----------------|-----------------|-----------------|-----------------|
|-----------------|-----------------|-----------------|-----------------|
|-7\--------------|-----------------|-----------------|-----------------|
  H       H         W                 W                 W

|-----------------|-----------------|-----------------|-----------------|
|-----------------|-----------------|-----------------|-----------------|
|-----------------|-----------------|-----------------|-----------------|
|-7\--------------|---------------2-|-2-2-2-----------|-----------------|
  H       H         H.          E E   S E E S E H       W

8 Bars Rest

|-----------------|-----------------|-----------------|-----------------|
|-----------------|-----------------|-----------------|-----------------|
|-2---------------|(2)--------------|-2---------------|-----------------|
|-----------------|-----------------|-----------------|-----------------|
  W                 W                 Q   Q   H         W

|-----------------|-----------------|-----------------|-----------------|
|-----------------|-----------------|-----------------|-----------------|
|-2---------------|(2)--------------|-2---------------|-----------------|
|-----------------|-----------------|-----------------|-----------------|
  W                 W                 Q   Q   H         W

|-----------------|-----------------|-----------------|-----------------|
|-----------------|-----------------|-----------------|-------------9\--|
|-2---------------|(2)--------------|-2---------------|---------2/------|
|-----------------|-----------------|-----------------|-----------------|
  W                 W                 Q   Q   H         Q   Q   Q   Q

Outro

|-------2----------------|-----------------|-------2----------------|-----------------|
|------------------------|-----------------|------------------------|-----------------|
|-2p0-x----x-------------|-----------------|-2p0-x----x-------------|-----------------|
|------------x-x-x-x-x-x-|-0---0-----2---5-|------------x-x-x-x-x-x-|-0---0-----2---5-|
  S S S E. E S S E S S E   E E E E E Q   E   S S S E. E S S E S S E   E E E E E Q   E

|-------2----------------|-----------------|-------2----------------|-----------------|
|------------------------|-----------------|------------------------|-----------------|
|-2p0-x----x-------------|-----------------|-2p0-x----x-------------|-----------------|
|------------x-x-x-x-x-x-|-0---0-----2---5-|------------x-x-x-x-x-x-|-2---2-----------|
  S S S E. E S S E S S E   E E E E E Q   E   S S S E. E S S E S S E   E E E E H

|-------2----------------|-----------------|-------2----------------|-----------------|
|------------------------|-----------------|------------------------|-----------------|
|-2p0-x----x-------------|-----------------|-2p0-x----x-------------|-----------------|
|------------x-x-x-x-x-x-|-0---0-----2---5-|------------x-x-x-x-x-x-|-0---0-----2---5-|
  S S S E. E S S E S S E   E E E E E Q   E   S S S E. E S S E S S E   E E E E E Q   E

|-------2----------------|-----------------|-------2----------------|-----------9-10-9-7---|
|------------------------|-----------------|------------------------|--------------------9-|
|-2p0-x----x-------------|-----------------|-2p0-x----x-------------|----------------------|
|------------x-x-x-x-x-x-|-0---0-----2---5-|------------x-x-x-x-x-x-|-2---2----------------|
  S S S E. E S S E S S E   E E E E E Q   E   S S S E. E S S E S S E   E E E E E S S  S S E

|-----------------|-----------------|-----------------|-----------------||
|-9---------------|-----------------|-----------------|-----------------||
|---9-------------|-----------------|-----------------|-----------------||
|-----7-----------|-----------------|-7---------------|-----------------||
  S S Q   S H       W                 H       H         W


Key to rhythm notations:

W - Whole Note/Semi-Brieve
H - Half Note/Minim
Q - Quarter Note/Crotchet       Q. - Dotted Quarter Note
E - Eight Note/Quaver           E. - Dotted Eight Note
S - Sixteenth Note/Semi-Quaver  S. - Dotted Sixteenth Note
Добавлено: 19.03.2016
Другие материалы по этой песне:
  • Аккорды и текст

Страница создана 29.04.2012
http://primanota.ru/prince/lady-cab-driver-chords.htm
Привет, Гость.
Предлагаем пройти революционный курс по гитаре.
Подарок от PrimaNota.Ru, забирай!