PrimaNota.ru - самый крупный в мире бесплатный архив песенных текстов, аккордов, табулатур и нот


Prince - D.m.s.r. - текст песни, бас-таба, видео

Регистрация Запомнить меня
Войти через:  Facebook Google Twitter Vk Yandex Mail.ru

Prince - D.m.s.r. - текст песни, бас-таба, видео

Печатать
Просмотров: 117
Авторы музыки: Prince
Авторы текста: Prince
                                       DMSR
                                      Prince

Bass                                                              Prince 

As played by Prince

Slap throughout

Intro

16 Bars Rest

|-6\--------------|-----------------|-6\--------------|-----------------|
|-----------------|-----------------|-----------------|-----------------|
|-----------------|-4\--------------|-----------------|-4\--------------|
|---0-1-2/4-------|-----------------|---0-1-2/4-------|-----------------|
  E E E E E E Q     Q   Q   H         E E E E E E Q     Q   Q   H

|-6\--------------|-----------------|-6\--------------|-----------------|
|-----------------|-------2-4-2-----|-----------------|-----------------|
|-----------------|-4\----------4---|-----------------|-4\--------------|
|---0-1-2/4-------|---------------2\|---0-1-2/4-------|-----------------|
  E E E E E E Q     Q   Q.S S S S E   E E E E E E Q    Q   Q   H

|-------------------|-----------------|
|-------------------|-----------------|
|-------------------|-----------------|
|-4-4-4-4-4-4-4-4-4-|(4)\-------------|
  E E E E E E E S S   Q   Q   H

|-6\--------------|-----------------|-6\--------------|-----------------|
|-----------------|-----------------|-----------------|-----------------|
|-----------------|-4\--------------|-----------------|-4\--------------|
|---0-1-2/4-------|-----------------|---0-1-2/4-------|-----------------|
  E E E E E E Q     Q   Q   H         E E E E E E Q     Q   Q   H

|-6\--------------|-----------------|-6\--------------|-----------------|
|-----------------|-----------2-----|-----------------|-----------------|
|-----------------|-4\--------------|-----------------|-4\--------------|
|---0-1-2/4-------|-----------------|---0-1-2/4-------|-----------------|
  E E E E E E Q     Q   Q   E E Q     E E E E E E Q     Q   Q   H

Verse 1
                                                                         x4
||--6\--------------|-----------------|-6\--------------|------------------||
||o-----------------|-----------------|-----------------|-----------------o||
||o-----------------|-4\--------------|-----------------|-4\--------------o||
||----0-1-2/4-------|-----------------|---0-1-2/4-------|------------------||
    E E E E E E Q     Q   Q   H         E E E E E E Q     Q   Q   H

|-------------------|-----------------|
|-------------------|-----------------|
|-------------------|-----------------|
|-4-4-4-4-4-4-4-4-4-|(4)\-------------|
  E E E E E E E S S   Q   Q   H

Chorus 1

||--6\--------------|-----------------|-6\--------------|------------------||
||o-----------------|-----------------|-----------------|-----------------o||
||o-----------------|-4\--------------|-----------------|-4\--------------o||
||----0-1-2/4-------|-----------------|---0-1-2/4-------|------------------||
    E E E E E E Q     Q   Q   H         E E E E E E Q     Q   Q   H

Verse 2

|-6\--------------|-----------------|-6\--------------|-----------------|
|-----------------|-----------------|-----------------|-----------------|
|-----------------|-4\--------------|-----------------|-4\--------------|
|---0-1-2/4-------|-----------------|---0-1-2/4-------|-----------------|
  E E E E E E Q     Q   Q   H         E E E E E E Q     Q   Q   H

|-6\--------------|-----------------|-6\--------------|-----------------|
|-----------------|-----------2-----|-----------------|-----------------|
|-----------------|-4\--------------|-----------------|-4\--------------|
|---0-1-2/4-------|-----------------|---0-1-2/4-------|-----------------|
  E E E E E E Q     Q   Q   E E Q     E E E E E E Q     Q   Q   H

|-6\--------------|---------4h6p4---|-6\--------------|-----------------|
|-----------------|-----------------|-----------------|-----------------|
|-----------------|-4\--------------|-----------------|-4\--------------|
|---0-1-2/4-------|-----------------|---0-1-2/4-------|-----------------|
  E E E E E E Q     Q   Q E S S Q     E E E E E E Q     Q   Q   H

|-6\--------------|-----------------|-6\--------------|-----------------|
|-----------------|-----------------|-----------------|-----------------|
|-----------------|-4\--------------|-----------------|-----------------|
|---0-1-2/4-------|-----------------|---0-1-2/4-------|-4---6---7-------|
  E E E E E E Q     Q   Q   H         E E E E E E Q     Q   Q   H

Chorus 2

|-6\--------------|-----------------|-6\--------------|-----------------|
|-----------------|-----------------|-----------------|-----------------|
|-----------------|-4\--------------|-----------------|-4\--------------|
|---0-1-2/4-------|-----------------|---0-1-2/4-------|-----------------|
  E E E E E E Q     Q   Q   H         E E E E E E Q     Q   Q   H

|-6\--------------|-----------------|-6\--------------|-----------------|
|-----------------|-----------------|-----------------|-------2-4/6-4-2-|
|-----------------|-4\--------------|-----------------|-4\--------------|
|---0-1-2/4-------|-----------------|---0-1-2/4-------|-----------------|
  E E E E E E Q     Q   Q   H         E E E E E E Q     Q   Q E E S S E

|-------------------|-----------------|
|-------------------|-----------------|
|-------------------|-----------------|
|-4-4-4-4-4-4-4-4-4-|(4)\-------------|
  E E E E E E E S S   Q   Q   H

Interlude 1

||--6\--------------|-----------------|-6\--------------|------------------||
||o-----------------|-----------------|-----------------|-----------------o||
||o-----------------|-4\--------------|-----------------|-4\--------------o||
||----0-1-2/4-------|-----------------|---0-1-2/4-------|------------------||
    E E E E E E Q     Q   Q   H         E E E E E E Q     Q   Q   H

|-------------------|-----------------|
|-------------------|-----------------|
|-------------------|-----------------|
|-4-4-4-4-4-4-4-4-4-|-----------------|
  E E E E E E E S S   W

Guitar Break

16 Bars Rest

Interlude 2

|-----------------|-----------------|-----------------|-----------------|
|-----------------|-----------2-----|-----------------|---------2-4-5-6-|
|-4\--------------|-4\--------------|-4\--------------|-4\--------------|
|---0-1-2/4-------|-----------------|---0-1-2/4-------|-----------------|
  E E E E E E Q     Q   Q   E E Q     E E E E E E Q     Q   Q E S S E E

|-----------------|-----------------|-----------------|-----------------|
|-----------------|-----------2-----|-----------------|-----------------|
|-4\--------------|-4\--------------|-4\--------------|-4\--------------|
|---0-1-2/4-------|-----------------|---0-1-2/4-------|---------3---4---|
  E E E E E E Q     Q   Q   E E Q     E E E E E E Q     Q   Q   Q   Q

All the white people...

|-------------------|-----------------|
|-------------------|-----------------|
|-------------------|-----------------|
|-4-4-4-4-4-4-4-4-4-|-----------------|
  E E E E E E E S S   W

||--6\--------------|-----------------|-6\--------------|------------------||
||o-----------------|-----------------|-----------------|-----------------o||
||o-----------------|-4\--------------|-----------------|-4\--------------o||
||----0-1-2/4-------|-----------------|---0-1-2/4-------|------------------||
    E E E E E E Q     Q   Q   H         E E E E E E Q     Q   Q   H

I Don't Want To Be A Poet...

|-6\--------------|-----------------|-6\--------------|-----------------|
|-----------------|-----------2-----|-----------------|-----------------|
|-----------------|-4\--------------|-----------------|-4\--------------|
|---0-1-2/4-------|-----------------|---0-1-2/4-------|-----------------|
  E E E E E E Q     Q   Q   E E Q     E E E E E E Q     Q   Q   H

|-6\--------------|-----------------|-6\--------------|-----------------|
|-----------------|-----------------|-----------------|-----------------|
|-----------------|-4\--------------|-----------------|-4\--------------|
|---0-1-2/4-------|-----------------|---0-1-2/4-------|-----------------|
  E E E E E E Q     Q   Q   H         E E E E E E Q     Q   Q   H   

|-------------------|-----------------|
|-------------------|-----------------|
|-------------------|---------0-1-2-3-|
|-4-4-4-4-4-4-4-4-4-|-----------------|
  E E E E E E E S S   H     E S S E E

||--6\--------------|-----------------|-6\--------------|------------------||
||o-----------------|-----------------|-----------------|-----------------o||
||o-----------------|-4\--------------|-----------------|-4\--------------o||
||----0-1-2/4-------|-----------------|---0-1-2/4-------|------------------||
    E E E E E E Q     Q   Q   H         E E E E E E Q     Q   Q   H

Dance... Music...

||--6\--------------|-----------------|-6\--------------|------------------||
||o-----------------|-----------------|-----------------|-----------------o||
||o-----------------|-4\--------------|-----------------|-4\--------------o||
||----0-1-2/4-------|-----------------|---0-1-2/4-------|------------------||
    E E E E E E Q     Q   Q   H         E E E E E E Q     Q   Q   H

|-6\--------------|-----------------|-6\--------------|-----------9h11p9----|
|-----------------|-----------------|-----------------|------------------11-|
|-----------------|-4\--------------|-----------------|-4\------------------|
|---0-1-2/4-------|-----------------|---0-1-2/4-------|---------------------|
  E E E E E E Q     Q   Q   H         E E E E E E Q     Q   Q   E E S  S E

Dance... Music...

|-9---11-13-9-------|-----------------|-9---11-13-9-------|-----------------|
|---------------11--|-----------------|---------------11--|-----------------|
|-------------------|-----------------|-------------------|-----------------|
|-------------------|-----------------|-------------------|-----------------|
  Q   E  E  Q   Q     W                 Q   E  E  Q   Q     W

|-9---11-13-9-------|---------4h6p4---|-9---11-13-9-------|-----------------|
|---------------11--|-----------------|---------------11--|-----------------|
|-------------------|-----------------|-------------------|-----------------|
|-------------------|-----------------|-------------------|-----------------|
  Q   E  E  Q   Q     H     E S S E E   Q   E  E  Q   Q     W

|-------------------|-----------------|
|-------------------|-----------------|
|-------------------|-----------------|
|-4-4-4-4-4-4-4-4-4-|(4)\-------------|
  E E E E E E E S S   Q   Q   H

Percussion Break

16 Bars Rest

Jamie Starr's A Thief

|-9---11-13-9-------|-----------------|-9---11-13-9-------|-----------------|
|---------------11--|-----------------|---------------11--|-----------------|
|-------------------|-----------------|-------------------|-----------------|
|-------------------|-----------------|-------------------|-----------------|
  Q   E  E  Q   Q     W                 Q   E  E  Q   Q     W

|-9---11-13-9-------|---------4h6p4---|-9---11-13-9-------|-----------------|
|---------------11--|-----------------|---------------11--|-----------------|
|-------------------|-----------------|-------------------|-----------------|
|-------------------|-----------------|-------------------|-----------------|
  Q   E  E  Q   Q     H     E S S E E   Q   E  E  Q   Q     W

|-------------------|-----------------|
|-------------------|-----------------|
|-------------------|-----------------|
|-4-4-4-4-4-4-4-4-4-|(4)\-------------|
  E E E E E E E S S   Q   Q   H

Chorus 3

|-6\--------------|-----------------|-6\--------------|-----------------|
|-----------------|-----------------|-----------------|-----------------|
|-----------------|-4\--------------|-----------------|-4\--------------|
|---0-1-2/4-------|-----------------|---0-1-2/4-------|-----------------|
  E E E E E E Q     Q   Q   H         E E E E E E Q     Q   Q   H   

|-6\--------------|-----------------|-6\--------------|-----------------|
|-----------------|-----------2-----|-----------------|-----------------|
|-----------------|-4\--------------|-----------------|-4\--------------|
|---0-1-2/4-------|-----------------|---0-1-2/4-------|-----------------|
  E E E E E E Q     Q   Q   E E Q     E E E E E E Q     Q   Q   H

|-6\--------------|-----------------|-6\--------------|-----------------|
|-----------------|-------2-4-2-----|-----------------|-----------------|
|-----------------|-4\----------4---|-----------------|-4\--------------|
|---0-1-2/4-------|---------------2\|---0-1-2/4-------|-----------------|
  E E E E E E Q     Q   Q.S S S S E   E E E E E E Q    Q   Q   H

|-6\--------------|-----------------|-6\--------------|-----------------|
|-----------------|-----------------|-----------------|-----------------|
|-----------------|-4\--------------|-----------------|-4\--------------|
|---0-1-2/4-------|-----------------|---0-1-2/4-------|-----------------|
  E E E E E E Q     Q   Q   H         E E E E E E Q     Q   Q   H   

|-----------------|-----------------|-6\--------------|-----------------|
|-2-3-4-5/6-------|-2\--------------|-----------------|-----------------|
|-----------------|-----------------|-----------------|-4\--------------|
|-----------------|-----------------|---0-1-2/4-------|-----------------|
  E E E E E E Q     Q   Q   H         E E E E E E Q     Q   Q   H   

|-6\--------------|-----------------|-6\--------------|-----------------|
|-----------------|-----------------|-----------------|-----------------|
|-----------------|-4\--------------|-----------------|-4\----------4---|
|---0-1-2/4-------|-----------------|---0-1-2/4-------|-------2-3-4-----|
  E E E E E E Q     Q   Q   H         E E E E E E Q     Q E S S E E Q 

|-6\--------------|-----------------|-6\--------------|-----------------|
|-----------------|-----------6-----|-----------------|-----------------|
|-----------------|-4\--------------|-----------------|-4\----------4---|
|---0-1-2/4-------|--------------4\-|---0-1-2/4-------|-------2-3-4-----|
  E E E E E E Q     Q   Q   E E  Q    E E E E E E Q     Q E S S E E Q 

|-6\--------------|-----------------|-6\--------------|-----------------|
|-----------------|-----------2-----|-----------------|-----------------|
|-----------------|-4\--------------|-----------------|-4\--------------|
|---0-1-2/4-------|-----------------|---0-1-2/4-------|---------3---4---|
  E E E E E E Q     Q   Q   E E Q     E E E E E E Q     Q   Q   Q   Q

|-------------------|-----------------||
|-------------------|-----------------||
|-------------------|-----------------||
|-4-4-4-4-4-4-4-4-4-|-----------------||
  E E E E E E E S S   W

Key to rhythm notations:

W - Whole Note/Semi-Brieve
H - Half Note/Minim
Q - Quarter Note/Crotchet       Q. - Dotted Quarter Note
E - Eight Note/Quaver           E. - Dotted Eight Note
S - Sixteenth Note/Semi-Quaver  S. - Dotted Sixteenth Note
Добавлено: 19.03.2016
Другие материалы по этой песне:
  • Аккорды и текст

Страница создана 26.03.2012
http://primanota.ru/prince/dmsr-chords.htm
Привет, Гость.
Предлагаем пройти революционный курс по гитаре.
Подарок от PrimaNota.Ru, забирай!