PrimaNota.ru - самый крупный в мире бесплатный архив песенных текстов, аккордов, табулатур и нот


Prince - Dance on - текст песни, бас-таба, видео

Регистрация Запомнить меня
Войти через:  Facebook Google Twitter Vk Yandex Mail.ru

Prince - Dance on - текст песни, бас-таба, видео

Печатать
Просмотров: 78
Авторы музыки: Prince Rogers Nelson
Авторы текста: Prince Rogers Nelson
                                     Dance On
                                      Prince

Bass                                                              Prince 
        
As played by Prince

Intro

||----------------------------------|-----------------------------|
||o---------------------------------|-----------------------------|
||o-5-5-5-5-5-5-5-5-5-5-5-5-5-5-5-5-|-3-3-3-3-3-3-3-3-3-3-3-3-3-3-|
||----------------------------------|-----------------------------|
    S S S S S S S S S S S S S S S S   S S S S S S S S S S S S E E

|-----------------|------------------||
|-----------------|-----------------o||
|-3-5-------------|-----------------o||
|-----------------|------------------||
  S S E Q   H       W

Verse 1

||----------------------------------|-----------------------------|
||o---------------------------------|-----------------------------|
||o-5-5-5-5-5-5-5-5-5-5-5-5-5-5-5-5-|-3-3-3-3-3-3-3-3-3-3-3-3-3-3-|
||----------------------------------|-----------------------------|
    S S S S S S S S S S S S S S S S   S S S S S S S S S S S S E E

|-----------------|------------------||
|-----------------|-----------------o||
|-3-5-------------|-----------------o||
|-----------------|------------------||
  S S E Q   H       W 

Chorus 1

||------------------|-----------------|-----------------|------------------||
||o-----------------|-----------------|-----------------|-----------------o||
||o-----------------|-----------------|-5---------------|-----------------o||
||--5---5---5-------|-3---3---3-------|-----------------|------------------||
    Q   Q   H         Q   Q   H         Q   Q   H         W

Verse 2

||----------------------------------|-----------------------------|
||o---------------------------------|-----------------------------|
||o-5-5-5-5-5-5-5-5-5-5-5-5-5-5-5-5-|-3-3-3-3-3-3-3-3-3-3-3-3-3-3-|
||----------------------------------|-----------------------------|
    S S S S S S S S S S S S S S S S   S S S S S S S S S S S S E E

                                   x4
|-----------------|------------------||
|-----------------|-----------------o||
|-3-5-------------|-----------------o||
|-----------------|------------------||
  S S E Q   H       W

Chorus 2

||------------------|-----------------|-----------------|------------------||
||o-----------------|-----------------|-----------------|-----------------o||
||o-----------------|-----------------|-5---------------|-----------------o||
||--5---5---5-------|-3---3---3-------|-----------------|------------------||
    Q   Q   H         Q   Q   H         Q   Q   H         W

Solo

||----------------------------------|-----------------------------|
||o---------------------------------|-----------------------------|
||o-5-5-5-5-5-5-5-5-5-5-5-5-5-5-5-5-|-3-3-3-3-3-3-3-3-3-3-3-3-3-3-|
||----------------------------------|-----------------------------|
    S S S S S S S S S S S S S S S S   S S S S S S S S S S S S E E

|-----------------|------------------||
|-----------------|-----------------o||
|-3-5-------------|-----------------o||
|-----------------|------------------||
  S S E Q   H       W 

Chorus 3

||------------------|-----------------|-----------------|------------------||
||o-----------------|-----------------|-----------------|-----------------o||
||o-----------------|-----------------|-5---------------|-----------------o||
||--5---5---5-------|-3---3---3-------|-----------------|------------------||
    Q   Q   H         Q   Q   H         Q   Q   H         W

Verse 3

|---------------------------------|-----------------------------|
|---------------------------------|-----------------------------|
|-5-5-5-5-5-5-5-5-5-5-5-5-5-5-5-5-|-3-3-3-3-3-3-3-3-3-3-3-3-3-3-|
|---------------------------------|-----------------------------|
  S S S S S S S S S S S S S S S S   S S S S S S S S S S S S E E

      P   P S P P
|-----x---x---5-7-|-----------------|
|-----------------|-----------------|
|-3-5-------5\----|-------x-x-------|
|-----------------|-----------------|
  S S E E E Q.      Q.  S S S S Q. 

||----------------------------------|-----------------------------|
||o---------------------------------|-----------------------------|
||o-5-5-5-5-5-5-5-5-5-5-5-5-5-5-5-5-|-3-3-3-3-3-3-3-3-3-3-3-3-3-3-|
||----------------------------------|-----------------------------|
    S S S S S S S S S S S S S S S S   S S S S S S S S S S S S E E

                                   x3
|-----------------|------------------||
|-----------------|-----------------o||
|-3-5-------------|-----------------o||
|-----------------|------------------||
  S S E Q   H       W

Chorus 4

||----------------------------------|-----------------------------|
||o---------------------------------|-----------------------------|
||o-5-5-5-5-5-5-5-5-5-5-5-5-5-5-5-5-|-3-3-3-3-3-3-3-3-3-3-3-3-3-3-|
||----------------------------------|-----------------------------|
    S S S S S S S S S S S S S S S S   S S S S S S S S S S S S E E

|-----------------|------------------||
|-----------------|-----------------o||
|-3-5-------------|-----------------o||
|-----------------|------------------||
  S S E Q   H       W

Outro

||----------------------------------|-----------------------------|
||o---------------------------------|-----------------------------|
||o-5-5-5-5-5-5-5-5-5-5-5-5-5-5-5-5-|-3-3-3-3-3-3-3-3-3-3-3-3-3-3-|
||----------------------------------|-----------------------------|
    S S S S S S S S S S S S S S S S   S S S S S S S S S S S S E E

|-----------------|-----------------|---------------||
|-----------------|-----------------|----4-Bars----o||
|-3-5-------------|-----------------|-----Rest-----o||
|-----------------|-----------------|---------------||
  S S E Q   H       W

||----------------------------------|-----------------------------|
||o---------------------------------|-----------------------------|
||o-5-5-5-5-5-5-5-5-5-5-5-5-5-5-5-5-|-3-3-3-3-3-3-3-3-3-3-3-3-3-3-|
||----------------------------------|-----------------------------|
    S S S S S S S S S S S S S S S S   S S S S S S S S S S S S E E

                                   x5
|-----------------|------------------||
|-----------------|-----------------o||
|-3-5-------------|-----------------o||
|-----------------|------------------||
  S S E Q   H       W


Key to rhythm notations:

W - Whole Note/Semi-Brieve
H - Half Note/Minim
Q - Quarter Note/Crotchet       Q. - Dotted Quarter Note
E - Eight Note/Quaver           E. - Dotted Eight Note
S - Sixteenth Note/Semi-Quaver  S. - Dotted Sixteenth Note
Добавлено: 19.03.2016
Другие материалы по этой песне:
  • Аккорды и текст

Страница создана 07.04.2012
http://primanota.ru/prince/dance-on-chords.htm
Привет, Гость.
Предлагаем пройти революционный курс по гитаре.
Подарок от PrimaNota.Ru, забирай!