PrimaNota.ru - самый крупный в мире бесплатный архив песенных текстов, аккордов, табулатур и нот


Prince - Anna Stesia - текст песни, бас-таба, видео

Регистрация Запомнить меня
Войти через:  Facebook Google Twitter Vk Yandex Mail.ru

Prince - Anna Stesia - текст песни, бас-таба, видео

Печатать
Просмотров: 97
Авторы музыки: Prince Rogers Nelson
Авторы текста: Prince Rogers Nelson
                                   Anna Stesia
                                      Prince

Synth Bass arr. for Electric Bass                                 Prince 

As played by Prince

Intro

8 Bars Rest

Verse 1

|-----------------|-----------------|-----------------|------5/10\5-----|
|-----------------|-----------------|-----------------|-----------------|
|-----------------|-----------------|-----------------|-----------------|
|-----------------|-----------------|-----------------|-------------1-3-|
  W                 W                 W                 H    S S  E E E

|-----------------|-----------------|-----------------|---------------------|
|-----------------|-----------------|-----------------|---------------------|
|-----------------|-----------------|-----------------|-------------1-3-1-3-|
|-----------------|-----------------|-----------------|-----------3---------|
  W                 W                 W                 H       E S S S S E

Chorus 1

|-----------------|-----------------|-----------------|---------------------|
|-----------------|-3-----3-3-------|-----------------|---------------------|
|-3-----3-3-------|-----------------|-3-----3-3-------|-1-----1-----1-3-1-3-|
|-----------------|-----------------|-----------------|-----------3---------|
  Q.    E H         Q.    E H         Q.    E H         Q.    Q   S S S S E

|-----------------|-----------------|-----------------|---------------------|
|-----------------|-3-----3-3-------|-----------------|---------------------|
|-3-----3-3-------|-----------------|-3-----3-3-------|-1-----1-----1-3-1-3-|
|-----------------|-----------------|-----------------|-----------3---------|
  Q.    E H         Q.    E H         Q.    E H         Q.    E E S S S S E

Verse 2

|-----------------|-----------------|-----------------|-----------------|
|-----------------|-3-----3-3-------|-----------------|-3-----3-3-----5-|
|-3-----3-3-------|-----------------|-3-----3-3-------|-----------------|
|-----------------|-----------------|-----------------|-----------------|
  Q.    E H         Q.    E H         Q.    E H         Q.    E Q.    E

|-----------------|-----------------|-----------------|-----------------|
|-----------------|-3-----3-3-------|-----------------|-3-----3-1---3---|
|-3-----3-3-------|-----------------|-3-----3-3-------|-----------------|
|-----------------|-----------------|-----------------|-----------------|
  Q.    E H         Q.    E H         Q.    E H         Q.    E Q   Q

|-----------------|-----------------|-----------------|-------------1-----|
|-----------------|-3-----3-3-------|-----------------|-3-----3---1---1-3-|
|-3-----3-3-------|-----------------|-3-----3-3-------|-------------------|
|-----------------|-----------------|-----------------|-------------------|
  Q.    E H         Q.    E H         Q.    E H         Q.    Q   E S S E 

|-----------------|-----------------|-----------------|-----------------|
|-----------------|-3-----3-3-------|-----------------|-----------------|
|-3-----3-3-------|-----------------|-3-----3-3-------|---------1---5-3-|
|-----------------|-----------------|-----------------|-3---3-----3-----|
  Q.    E H         Q.    E H         Q.    E H         Q   Q   E E E E

Chorus 2

|-----------------|-----------------|-----------------|---------------------|
|-----------------|-3-----3-3-------|-----------------|---------------------|
|-3-----3-3-------|-----------------|-3-----3-3-------|-1-----1-----1-3-1-3-|
|-----------------|-----------------|-----------------|-----------3---------|
  Q.    E H         Q.    E H         Q.    E H         Q.    Q   S S S S E

|-----------------|-----------------|-----------------|-3-----------3-5-|
|-----------------|-3-----3-3-------|-----------------|-----6-5---------|
|-3-----3-3-------|-----------------|-3-----3-3-------|-----------------|
|-----------------|-----------------|-----------------|-----------------|
  Q.    E H         Q.    E H         Q.    E H         Q   E Q.    E E

Bridge 1

|-----------------|-----------------|-----------------|-----------------|
|-----------------|-----------------|-----------------|-----5-5-5-5-5-5-|
|-3---------------|-----------------|-----------------|-----------------|
|-----------------|-----------------|-----------------|-----------------|
  W                 W                 W                 Q   E E E E E E

|-----------------|-----------------|-----------------|-3-----------3-5-|
|-5-3-------------|-3-----3-3-------|-----------------|-----6-5---------|
|-----6-3-----3---|-----------------|-3-----3-3-------|-----------------|
|-----------------|-----------------|-----------------|-----------------|
  S S S S Q.  Q     Q.    E H         Q.    E H         Q   E Q.    E E

Chorus 3

|-----------------|-----------------|-----------------|-3-----------3-5-|
|-----------------|-3-----3-3-------|-----------------|-----6-5---------|
|-3-----3-3-------|-----------------|-3-----3-3-------|-----------------|
|-----------------|-----------------|-----------------|-----------------|
  Q.    E H         Q.    E H         Q.    E H         Q   E Q.    E E

Verse 3

|-----------------|-----------------|-----------------|-----------------|
|-----------------|-3-----3-3-------|-----------------|-3-----3-3-----5-|
|-3-----3-3-------|-----------------|-3-----3-3-------|-----------------|
|-----------------|-----------------|-----------------|-----------------|
  Q.    E H         Q.    E H         Q.    E H         Q.    E Q.    E

|-----------------|-----------------|-----------------|---------------1---3-|
|-----------------|-3-----3-3-------|-----------------|-3-1-3---3-1-3---3---|
|-3-----3-3-------|-----------------|-3-----3-3-------|---------------------|
|-----------------|-----------------|-----------------|---------------------|
  Q.    E H         Q.    E H         Q.    E H         S S Q   S S E E E E

Bridge 2

|-----------------|-----------------|-----------------|-3-----------3-5-|
|-----------------|-3-----3-3-------|-----------------|-----6-5---------|
|-3-----3-3-------|-----------------|-3-----3-3-------|-----------------|
|-----------------|-----------------|-----------------|-----------------|
  Q.    E H         Q.    E H         Q.    E H         Q   E Q.    E E

|-----------------|-----------------|-----------------|-3-----------3-5-|
|-----------------|-3-----3-3-------|-----------------|-----6-5---------|
|-3-----3-3-------|-----------------|-3-----3-3-------|-----------------|
|-----------------|-----------------|-----------------|-----------------|
  Q.    E H         Q.    E H         Q.    E H         Q   E Q.    E E

|-----------------|-----------------|-----------------|-------------------|
|-----------------|-3-----3-3-------|-----------------|-5-5-5-5-5-5-5-5-5-|
|-3-----3-3-------|-----------------|-3-----3-3-------|-------------------|
|-----------------|-----------------|-----------------|-------------------|
  Q.    E H         Q.    E H         Q.    E H         E E S S E E E E E

|-----------------|-----------------|-----------------|-3-----------3-5-|
|-----------------|-3-----3-3---1-3-|-----------------|-----6-5---------|
|-3-----3-3-------|-----------------|-3-----3-3-------|-----------------|
|-----------------|-----------------|-----------------|-----------------|
  Q.    E H         Q.    E Q.  S S   Q.    E H         Q   E Q.    E E

Outro

|-----------------|-----------------|-----------------|-3-----------3-5-|
|-----------------|-3-----3-3-------|-----------------|-----6-5---------|
|-3-----3-3-------|-----------------|-3-----3-3-------|-----------------|
|-----------------|-----------------|-----------------|-----------------|
  Q.    E H         Q.    E H         Q.    E H         Q   E Q.    E E

|-----------------|-----------------|-----------------|-------------8-7-|
|-----------------|-3-----3-3---1-3-|-----------------|-8-8-8-8-8-8-----|
|-3-----3-3-------|-----------------|-3-----3-3-------|-----------------|
|-----------------|-----------------|-----------------|-----------------|
  Q.    E H         Q.    E Q.  S S   Q.    E H         E E E E E E E E

|-----------------|-----------------|-----------------|-3-----------3-5-|
|-----------------|-3-----3-3-------|-----------------|-----6-5---------|
|-3-----3-3-------|-----------------|-3-----3-3-------|-----------------|
|-----------------|-----------------|-----------------|-----------------|
  Q.    E H         Q.    E H         Q.    E H         Q   E Q.    E E

|-----------------|-----------------|-----------------|-3-----------3-5-|
|-----------------|-3-----5-3---3-5-|-----------------|-----6-5---------|
|-3-----3-3-------|-----------------|-3-----3-3-------|-----------------|
|-----------------|-----------------|-----------------|-----------------|
  Q.    E H         Q.    E Q.  S S   Q.    E H         Q   E Q.    E E

|-----------------|-----------------|-----------------|-3-----------3-5-|
|-----------------|-3-----3-3-------|-----------------|-----6-5---------|
|-3-----3-3-------|-----------------|-3-----3-3-------|-----------------|
|-----------------|-----------------|-----------------|-----------------|
  Q.    E H         Q.    E H         Q.    E H         Q   E Q.    E E

|-----------------|-----------------|-----------5---------|----------------8-7----|
|-----------------|-3-----3-3---3-5-|---------------------|------8----8-10-----10-|
|-3-----3-3-------|-----------------|-3-----3-3---3---3-3-|-8-10---10-------------|
|-----------------|-----------------|---------------------|-----------------------|
  Q.    E H         Q.    E Q.  S S   Q.    E S S E E S S   E E  E E  E E  S S E

|-----------------|-----------------|-----------------|-3-----------3-5-|
|-----------------|-3-----3-3-------|-----------------|-----6-5---------|
|-3-----3-3-------|-----------------|-3-----3-3-------|-----------------|
|-----------------|-----------------|-----------------|-----------------|
  Q.    E H         Q.    E H         Q.    E H         Q   E Q.    E E

|-----------------|-----------------|-----------------|-3-----------3-5-|
|-----------------|-3-----3-3-------|-----------------|-----6-5---------|
|-3-----3-3-------|-----------------|-3-----3-3-------|-----------------|
|-----------------|-----------------|-----------------|-----------------|
  Q.    E H         Q.    E H         Q.    E H         Q   E Q.    E E

|-----------------|-----------------|-----------------|-----------------||
|-----------------|-----------------|-----------------|-----------------||
|-3---------------|-----------------|-----------------|-------3---------||
|-----------------|-----------------|-----------------|-----------------||
  W                 W                 W                 Q.    E Q


Key to rhythm notations:

W - Whole Note/Semi-Brieve
H - Half Note/Minim
Q - Quarter Note/Crotchet       Q. - Dotted Quarter Note
E - Eight Note/Quaver           E. - Dotted Eight Note
S - Sixteenth Note/Semi-Quaver  S. - Dotted Sixteenth Note

   
Добавлено: 19.03.2016
Другие материалы по этой песне:

Страница создана 26.03.2012
http://primanota.ru/prince/anna-stesia-chords.htm
Привет, Гость.
Предлагаем пройти революционный курс по гитаре.
Подарок от PrimaNota.Ru, забирай!