PrimaNota.ru - самый крупный в мире бесплатный архив песенных текстов, аккордов, табулатур и нот


Prince - All The Critics Love u in New York - текст песни, бас-таба, видео

Регистрация Запомнить меня
Войти через:  Facebook Google Twitter Vk Yandex Mail.ru

Prince - All The Critics Love u in New York - текст песни, бас-таба, видео

Печатать
Просмотров: 62
Авторы музыки: Prince
Авторы текста: Prince
                                  All The Critics 
                                 Love U In New York
                                      Prince

Bass                                                              Prince 

As played by Prince

Intro

||----------1--------|------------------|---------1--------|-------------------||
||o-1---3-x--------3-|-----3-x-1--------|-1---3-x--------3-|-----3-x-1--------o||
||o------------------|------------------|------------------|------------------o||
||-------------------|-1----------------|------------------|-1-----------------||
    Q   E S E S Q  E   Q   E S E S Q  E   Q   E S E S Q  E   Q   E S E S Q  E

Verse 1

||----------1--------|------------------|---------1--------|-------------------||
||o-1---3-x--------3-|-----3-x-1--------|-1---3-x--------3-|-----3-x-1--------o||
||o------------------|------------------|------------------|------------------o||
||-------------------|-1----------------|------------------|-1-----------------||
    Q   E S E S Q  E   Q   E S E S Q  E   Q   E S E S Q  E   Q   E S E S Q  E

Chorus 1

|-------------5---|-------------8-6-|
|-----3-----------|-----6-----------|
|-1-------3-------|-4-------6-------|
|-----------------|-----------------|
  Q   Q   Q   Q     Q   Q   Q   E E

|---------1--------|------------------|---------1--------|------------------|
|-1---3-x--------3-|-----3-x-1--------|-1---3-x--------3-|-----3-x-1--------|
|------------------|------------------|------------------|------------------|
|------------------|-1----------------|------------------|-1----------------|
  Q   E S E S Q  E   Q   E S E S Q  E   Q   E S E S Q  E   Q   E S E S Q  E

Verse 2

||----------1--------|------------------|---------1--------|-------------------||
||o-1---3-x--------3-|-----3-x-1--------|-1---3-x--------3-|-----3-x-1--------o||
||o------------------|------------------|------------------|------------------o||
||-------------------|-1----------------|------------------|-1-----------------||
    Q   E S E S Q  E   Q   E S E S Q  E   Q   E S E S Q  E   Q   E S E S Q  E

Chorus 2

|-------------5---|-------------8-6-|
|-----3-----------|-----6-----------|
|-1-------3-------|-4-------6-------|
|-----------------|-----------------|
  Q   Q   Q   Q     Q   Q   Q   E E

|---------1--------|------------------|---------1--------|------------------|
|-1---3-x--------3-|-----3-x-1--------|-1---3-x--------3-|-----3-x-1--------|
|------------------|------------------|------------------|------------------|
|------------------|-1----------------|------------------|-1----------------|
  Q   E S E S Q  E   Q   E S E S Q  E   Q   E S E S Q  E   Q   E S E S Q  E

Interlude

||----------1--------|------------------|---------1--------|-------------------||
||o-1---3-x--------3-|-----3-x-1--------|-1---3-x--------3-|-----3-x-1--------o||
||o------------------|------------------|------------------|------------------o||
||-------------------|-1----------------|------------------|-1-----------------||
    Q   E S E S Q  E   Q   E S E S Q  E   Q   E S E S Q  E   Q   E S E S Q  E

Chorus 3

|-------------5---|-------------8---|-------------5---|-------------8---|
|-----3-----------|-----6-----------|-----3-----------|-----6-----------|
|-1-------3-------|-4-------6-------|-1-------3-------|-4-------6-------|
|-----------------|-----------------|-----------------|-----------------|
  Q   Q   Q   Q     Q   Q   Q   Q     Q   Q   Q   Q     Q   Q   Q   Q   

|-------------5---|-------------8---|
|-----3-----------|-----6-----------|
|-1-------3-------|-4-------6-------|
|-----------------|-----------------|
  Q   Q   Q   Q     Q   Q   Q   Q

|---------1--------|------------------|---------1--------|------------------|
|-1---3-x--------3-|-----3-x-1--------|-1---3-x--------3-|-----3-x-1--------|
|------------------|------------------|------------------|------------------|
|------------------|-1----------------|------------------|-1----------------|
  Q   E S E S Q  E   Q   E S E S Q  E   Q   E S E S Q  E   Q   E S E S Q  E

Interlude

||----------1--------|------------------|---------1--------|-------------------||
||o-1---3-x--------3-|-----3-x-1--------|-1---3-x--------3-|-----3-x-1--------o||
||o------------------|------------------|------------------|------------------o||
||-------------------|-1----------------|------------------|-1-----------------||
    Q   E S E S Q  E   Q   E S E S Q  E   Q   E S E S Q  E   Q   E S E S Q  E

Chorus 4

|-------------5---|-------------8---|---------1--------|------------------|
|-----3-----------|-----6-----------|-1---3-x--------3-|-----3-x-1--------|
|-1-------3-------|-4-------6-------|------------------|------------------|
|-----------------|-----------------|------------------|-1----------------|
  Q   Q   Q   Q     Q   Q   Q   Q     Q   E S E S Q  E   Q   E S E S Q  E

|-------------5---|-------------8---|---------1--------|------------------|
|-----3-----------|-----6-----------|-1---3-x--------3-|-----3-x-1--------|
|-1-------3-------|-4-------6-------|------------------|------------------|
|-----------------|-----------------|------------------|-1----------------|
  Q   Q   Q   Q     Q   Q   Q   Q     Q   E S E S Q  E   Q   E S E S Q  E

|-------------5---|-------------8---|-------------5---|-------------8---|
|-----3-----------|-----6-----------|-----3-----------|-----6-----------|
|-1-------3-------|-4-------6-------|-1-------3-------|-4-------6-------|
|-----------------|-----------------|-----------------|-----------------|
  Q   Q   Q   Q     Q   Q   Q   Q     Q   Q   Q   Q     Q   Q   Q   Q   

|-------------5---|-------------8---|
|-----3-----------|-----6-----------|
|-1-------3-------|-4-------6-------|
|-----------------|-----------------|
  Q   Q   Q   Q     Q   Q   Q   Q

|---------1--------|------------------|---------1--------|------------------|
|-1---3-x--------3-|-----3-x-1--------|-1---3-x--------3-|-----3-x-1--------|
|------------------|------------------|------------------|------------------|
|------------------|-1----------------|------------------|-1----------------|
  Q   E S E S Q  E   Q   E S E S Q  E   Q   E S E S Q  E   Q   E S E S Q  E

Interlude

||----------1--------|------------------|---------1--------|-------------------||
||o-1---3-x--------3-|-----3-x-1--------|-1---3-x--------3-|-----3-x-1--------o||
||o------------------|------------------|------------------|------------------o||
||-------------------|-1----------------|------------------|-1-----------------||
    Q   E S E S Q  E   Q   E S E S Q  E   Q   E S E S Q  E   Q   E S E S Q  E

Chorus 5

|-------------5---|-------------8---|-------------5---|-------------8---|
|-----3-----------|-----6-----------|-----3-----------|-----6-----------|
|-1-------3-------|-4-------6-------|-1-------3-------|-4-------6-------|
|-----------------|-----------------|-----------------|-----------------|
  Q   Q   Q   Q     Q   Q   Q   Q     Q   Q   Q   Q     Q   Q   Q   Q   

|-------------5---|-------------8---|
|-----3-----------|-----6-----------|
|-1-------3-------|-4-------6-------|
|-----------------|-----------------|
  Q   Q   Q   Q     Q   Q   Q   Q

|---------1--------|------------------|---------1--------|------------------|
|-1---3-x--------3-|-----3-x-1--------|-1---3-x--------3-|-----3-x-1--------|
|------------------|------------------|------------------|------------------|
|------------------|-1----------------|------------------|-1----------------|
  Q   E S E S Q  E   Q   E S E S Q  E   Q   E S E S Q  E   Q   E S E S Q  E

Interlude/Outro

||----------1--------|------------------|---------1--------|-------------------||
||o-1---3-x--------3-|-----3-x-1--------|-1---3-x--------3-|-----3-x-1--------o||
||o------------------|------------------|------------------|------------------o||
||-------------------|-1----------------|------------------|-1-----------------||
    Q   E S E S Q  E   Q   E S E S Q  E   Q   E S E S Q  E   Q   E S E S Q  E


Key to rhythm notations:

W - Whole Note/Semi-Brieve
H - Half Note/Minim
Q - Quarter Note/Crotchet       Q. - Dotted Quarter Note
E - Eight Note/Quaver           E. - Dotted Eight Note
S - Sixteenth Note/Semi-Quaver  S. - Dotted Sixteenth Note
Добавлено: 19.03.2016
Другие материалы по этой песне:
  • Аккорды и текст

Страница создана 17.06.2012
http://primanota.ru/prince/all-the-critics-love-u-in-new-york-chords.htm
Привет, Гость.
Предлагаем пройти революционный курс по гитаре.
Подарок от PrimaNota.Ru, забирай!