PrimaNota.ru - самый крупный в мире бесплатный архив песенных текстов, аккордов, табулатур и нот


Prince - Adore - текст песни, бас-таба, видео

Регистрация Запомнить меня
Войти через:  Facebook Google Twitter Vk Yandex Mail.ru

Prince - Adore - текст песни, бас-таба, видео

Печатать
Просмотров: 65
Авторы музыки: Prince
Авторы текста: Prince
                                      Adore
                                      Prince

Bass                                                              Prince 

As played by Prince

Intro

|-----------------|-----------------|-----------------|-----------------|
|-----------------|-----------------|-----------------|-----------------|
|-----------------|-----------------|-3-----------3---|-------------3---|
|-3-----------3---|-3---------------|-----------------|-----------------|
  H.          Q     W                 H.          Q     H.          Q

|-----------------|-----------------|-----------------|-----------------|
|-----------------|-----------------|-----------------|-----------------|
|-2-----------2---|-----------------|-------------2-3-|-5---5-----------|
|-----------------|-------------0---|-5-----5---------|-----------------|
  H.          Q     H.          Q     Q.    E Q   E E   Q   Q   H

|-----------------|-----------------|-----------------|-----------------|
|-----------------|-----------------|-----------------|-----------------|
|-----------------|-----------------|-3-----------3---|-----------x-3---|
|-3-----3---------|-------------3---|-----------------|-----------------|
  Q.    E H         H.          Q     H.          Q     H       E E Q

|-----------------|-----------------|-----------------|-----------------|
|-----------------|-----------------|-----------------|-----------------|
|-2-----------2---|-----------------|-------------2-3-|-5---5-----------|
|-----------------|-------------0---|-5---------------|-----------------|
  H.          Q     H.          Q     H       Q   E E   Q   Q   H

Chorus 1

|-----------------|-----------------|-----------------|-----------------|
|-----------------|-----------------|-----------------|-----------------|
|-----------------|-----------------|-3-----------3---|-------------x---|
|-3-----------3---|-3---------------|-----------------|-----------------|
  H.          Q     W                 H.          Q     H.          Q

|-----------------|-----------------|-----------------|-----------------|
|-----------------|-----------------|-----------------|-----------------|
|-2-----------2---|-----------------|-------------2-3-|-5---5-------x---|
|-----------------|-----------------|-5---------------|-----------------|
  H.          Q     W                 H       Q   E E   Q   Q   Q   Q

|-----------------|-----------------|-----------------|-----------------|
|-----------------|-----------------|-----------------|-----------------|
|-----------------|-----------------|-3-----------3---|-3---------------|
|-3-----------3---|-3---------------|-----------------|-----------------|
  H.          Q     W                 H.          Q     Q   Q   H    

|-----------------|-----------------|-----------------|-----------------|
|-----------------|-----------------|-----------------|-----------------|
|-2-----------2---|-------------x---|-------------2-3-|-5---5-----------|
|-----------------|-----------------|-5---------------|-----------------|
  H.          Q     H.          Q     H       Q   E E   Q   Q   H

Verse 1

|-----------------|-----------------|-----------------|-----------------|
|-----------------|-----------------|-----------------|-----------------|
|-----------------|-----------------|-3-----------3---|-----------------|
|-3-----------3---|-3---------------|-----------------|-----------------|
  H.          Q     W                 H.          Q     W

|-----------------|-----------------|-----------------|-----------------|
|-----------------|-----------------|-----------------|-----------------|
|-2-----------2---|-2-----------2---|-------------2-3-|-5---5-------x---|
|-----------------|-----------------|-5---------------|-----------------|
  H.          Q     H.          Q     H       Q   E E   Q   Q   Q   Q

|-----------------|-----------------|-----------------|-----------------|
|-----------------|-----------------|-----------------|-----------------|
|-----------------|-----------------|-3-----------3---|-----------------|
|-3-----------3---|-3---------------|-----------------|-----------------|
  H.          Q     W                 H.          Q     W 

|-----------------|-----------------|-----------------|-----------------|
|-----------------|-----------------|-----------------|-----------------|
|-2-----------2---|-----------------|-------------2-3-|-5---5---x-x-x---|
|-----------------|-----------------|-5---------------|-----------------|
  H.          Q     W                 H       Q   E E   Q   Q   E E Q

|-----------------|-----------------|-----------------|-----------------|
|-----------------|-----------------|-----------------|-----------------|
|-----------------|-----------------|-3-----------3---|-----------------|
|-3-----------3---|-3---------------|-----------------|-----------------|
  H.          Q     W                 H.          Q     W 
                                                         _____
                                                        |  3  |
|-----------------|-----------------|-----------------|-----------------|
|-----------------|-----------------|-----------------|-----------------|
|-2-----------2---|-----------------|-----------------|-5--5--5---------|
|-----------------|-----------------|-5---------------|---------4-------|
  H.          Q     H.          Q     H       H         Q  Q  Q H

Chorus 2

|-----------------|-----------------|-----------------|-----------------|
|-----------------|-----------------|-----------------|-----------------|
|-----------------|-----------------|-3-----------3---|-----------------|
|-3-----3-----3---|-3---------------|-----------------|-----------------|
  Q.    E H         W                 H.          Q     W

|-----------------|-----------------|-----------------|-----------------|
|-----------------|-----------------|-----------------|-----------------|
|-2-----2-----2---|-2---------------|-------------2-3-|-5---5-----------|
|-----------------|-----------------|-5---------------|-----------------|
  Q.    E Q   Q     W                 H       Q   E E   Q   Q   H

|-----------------|-----------------|-----------------|-----------------|
|-----------------|-----------------|-----------------|-----------------|
|-----------------|-----------------|-3-----------3---|-----------------|
|-3-----------3---|-3---------------|-----------------|-------------5---|
  H.          Q     W                 H.          Q     H.          Q

|-----------------|-----------------|-----------------|-----------------|
|-----------------|-----------------|-----------------|-----------------|
|-2-----2---------|-2-----3-----5---|-----------------|/5--/5\----------|
|-----------------|-----------------|-5---------------|-----------------|
  Q.    E H         Q.    Q.    Q     H       H         Q   Q   H  

Bridge 1 

|-----------------|-----------------|-----------------|-----------------|
|-----------------|-------------5---|-----------------|-----------------|
|-----------------|---------5-7---7-|-3-----------3---|-----------------|
|-3-----3-----3---|-----------------|-----------------|-----------------|
  Q.    E H         H       E E E E  H.          Q     W

|-----------------|-----------------|-----------------|-----------------|
|-----------------|-----------------|-----------------|-----------------|
|-2-----------2---|-----------------|-----------------|-5-------7-------|
|-----------------|-----------------|-5-----5---------|-----------------|
  H.          Q     W                 Q.    E H         H       H

|-----------------|-----------------|-----------------|-----------------|
|-----------------|-----------------|-----------------|-----------------|
|-----------------|-----------------|-3---------------|-3-1-3-----------|
|-3-----3---------|-1---------------|-----------------|-----------------|
  Q.    E H         H       H         H       H         E E E E H

|-----------------|-----------------|-----------------|-----------------|
|-----------------|-----------------|-----------------|-----------------|
|-----------------|-----------------|-3-----3-------1-|-3-1-3-----------|
|-3-----3-------0-|-1-----1-------x-|-----------------|-----------------|
  Q.    E Q.    E   Q.    E Q.    E   Q.    E Q.    E   E E E E H

|-----------------|-----------------|-----------------|-----------------|
|-----------------|-----------------|-----------------|-----------------|
|-----------------|-----------------|-3-----3-------1-|-3-1-3-----------|
|-3-----3-------0-|-1-----1---------|-----------------|-----------------|
  Q.    E Q.    E   Q.    E H         Q.    E Q.    E   E E E E H

|-----------------|-----------------|-----------------|-----------------|
|-----------------|-----------------|-----------------|-----------------|
|-----------------|-----------------|-3-------1-------|-0---------------|
|-3-----3---------|-1-----1---------|-----------------|---------2/------|
  Q.    E H         Q.    E H.        H       H         H       H

|-----------------|-----------------|/9---------------|-----------------|
|-----------------|-----------------|-----------------|-----------------|
|-----------------|-----------------|---------------1-|-3-1-3-----x-----|
|-3-----3-------0-|-1-----1---------|-----------------|-----------------|
  Q.    E Q.    E   Q.    E H         H.          E E   E E E E E E Q

        S                 S
|-----------------|-----------------|-----------------|-----------------|
|-------5---------|-------3---------|-----------------|-----------------|
|-----------------|-----------------|-3-----3-------1-|-3-1-3-----3-----|
|-3-------3-------|-1---------------|-----------------|---------------1-|
  Q.    E H         Q.    E H         Q.    E Q.    E   E E E Q   Q   E

|-----------------|-----------------|-----------------|-----------------|
|-----------------|-----------------|-----------------|-----------------|
|-----------------|-----------------|-3-------1-------|-0---------------|
|-3-----3-------0-|-1-----1---------|-----------------|---------2/------|
  Q.    E Q.    E   Q.    E H         H       H         H       H

|-----------------|-----------------|-----------------|-----------------|
|-----------------|-----------------|-----------------|-----------------|
|-----------------|-----------------|-5-----5---------|-5---------------|
|-5-----5---------|-5-----5-----5-0-|-----------------|-----------------|
  Q.    E H         Q.    E Q   E E   Q.    E H         E E H.

Organ Break

8 Bars Rest

|-----------------|-----------------|-7/9-------------|-----------------|
|-----------------|-----------------|-----------------|-----------------|
|-----------------|-----------------|-----------------|-----------------|
|-----------------|-----------------|-----------------|-----------------|
  W                 W                 E Q.    H         W

|-----------------|-------12--------|-----------------|-12/14\-12-9-----|
|-12--------------|-12----------12--|-10--------------|-----------------|
|-----------------|-----------------|-----------------|-----------------|
|-----------------|-----------------|-----------------|-----------------|
  W                 Q.    Q.    Q     W                 E  Q.  E  Q.

Chorus 3

|-12--------------|-12----14----16--|-----------------|-9---------------|
|-----------------|-----------------|-12/14-----------|-----------------|
|-----------------|-----------------|-----------------|-----------------|
|-----------------|-----------------|-----------------|-----------------|
  W                 Q.    Q.    Q     E  Q.   H         W

|-7---------------|-4-----5-----7---|-7/9-------------|-7---5---4-------|
|-----------------|-----------------|-----------------|-----------7-5-4-|
|-----------------|-----------------|-----------------|-----------------|
|-----------------|-----------------|-----------------|-----------------|
  W                 Q.    Q.    Q     E Q.    H         Q   Q   E E E E

|-----------------|-----------------|-----------------|-----------------|
|-5-4-5-----------|-----------------|-----------------|-----------------|
|-----------------|------------/2---|-3-----3---------|-------------x-x-|
|-----------------|-3-----5---------|-----------------|-----------------|
  E E E E H         Q.    Q.    Q     Q.    E H         H.          E E

|-----------------|-----------------|-----------------|-----------------|
|-----------------|-----------------|-----------------|-----------------|
|-2-----2---------|-----------------|-------------2-3-|-5-3-5-----------|
|-----------------|---------------x-|-5---------------|-----------------|
  Q.    E H         H.          E E   H       Q   E E   E E E E H

|-----------------|-----------------|-----------------|-----------------|
|-----------------|-----------------|-----------------|-----------------|
|-----------------|-----------------|-3-----3---------|-------------3-5-|
|-3-----3---------|---------------x-|-----------------|-----------------|
  Q.    E H         H.          E E   Q.    E H         H.          E E

|-----------------|-----------------|-----------------|-----------------|
|-----------------|-----------------|-----------------|-----------------|
|-2-----2---------|---------x---2-3-|-------------2-3-|-5---5-----------|
|-----------------|-----------------|-5---------------|-----------------|
  Q.    E H         H       E E E E   H.          E E   Q   Q   H

Chorus 4

      S
|-----------------|-----------------|-----------------|-----------------|
|-----5---5---2-0-|-----------------|-----------------|-----------------|
|-----------------|-----------------|-3-----3-----x-3-|-------------3-5-|
|-3---------------|-3---3---x-----0-|-----------------|-----------------|
  Q   Q   Q   E E   Q   Q   Q   E E   Q.    E Q   E E   H.          E E

|-----------------|-----------------|-----------------|-----------------|
|-----------------|-----------------|-----------------|-----------------|
|-2-----2---------|-------2-----x-x-|-------------2-3-|-5-----5-5-------|
|-----------------|-----------------|-5-----5---------|-----------------|
  Q.    E H         Q.    E Q   E E   Q.    E Q   E E   Q.    E E E Q

                          S
|-----------------|-----------------|-----------------|-------5-----x-5-|
|-5---------------|-------5---------|-----------------|-----------------|
|---------5\------|-----------------|-3-----3---------|-----------------|
|-------------3-0-|-3-------------0-|-----------------|-----------------|
  H       Q   E E   Q.    E Q.    E   Q.    E H         Q.    E Q   E E

                                                                      S
|-----------------|-----------------|-----------------|---------------5-|
|-----------------|-----------------|-----------------|-----------------|
|-2-----2-------x-|-----------------|-------------2-3-|-5---5---5-------|
|-----------------|---------------0-|-5-----5---------|-----------------|
  Q.    E Q.    E   H       Q   E E   Q.    E Q   E E   Q   Q   Q   E E

Outro                                                    _____    _____
                                                        |  3  |  |  3  |
|-----------------|-----------------|-----------------|-12-9--------------|
|-2-0-------------|-----------------|-----------------|-------10----10----|
|-----------------|-----------------|-3-----3---------|----------10----10-|
|-------3-------3-|-----------------|-----------------|-------------------|
  E E E Q   Q   E   W                 Q.    E H         Q  Q  Q  Q  Q  Q

|-----------------|-----------------|-----------------|-----------------|
|-----------------|-----------------|-----------------|-----------------|
|-2-----2---------|-----------------|---------------3-|-5-3-5-----------|
|-----------------|---------------0-|-5-----5---------|-----------------|
  Q.    E H         H       Q   E E   Q.    E Q.    E   E E E E H

                        S
|-----------------|-----------------|-----------------|-----------------|
|-----------------|-----5-----------|-----------------|-----------------|
|-----------------|-----------------|-3-----3---------|-------------3-5-|
|-3-----3---------|---------------0-|-----------------|-----------------|
  Q.    E H         Q   Q   Q   E E   Q.    E H         H.          E E

|-----------------|-----------------|-----------------|-----------------|
|-----------------|-----------------|-----------------|-----------------|
|-2-----2---------|-----2-----------|-----------------|-5-------7-------|
|-----------------|-----------------|-5---------------|-----------------|
  Q.    E H         Q   E E H         W                 H       H

|-----------------|-----------------|-----------------|-----------------|
|-----------------|-----------------|-----------------|-----------------|
|-----------------|-------------2---|-3---------------|-3-------------0-|
|-3---------------|-3-----5---------|-----------------|-----------------|
  W                 Q.    Q.    Q     W                 E E Q   Q.    E

|-----------------|-----------------|-----------------|-----------------|
|-----------------|-----------------|-----------------|-----------------|
|-2---------------|-2-----x---------|-----------x-2---|-5---7--/8\--7-5-|
|-----------------|---------------0-|-5---------------|-----------------|
  W                 E Q   E Q.    E   H       E E E E   Q   Q   Q   E E

                S
|-----------------|-----------------|-----------------|-9-------5-------|
|-----------------|-----------------|-----------------|-----------------|
|-5-7-----------5-|-----------------|-3-------3-------|-----------------|
|-----3-----------|---------------0-|-----------------|-----------------|
  E E E E Q.    E   H.          E E   H       E Q.      H       H

|-----------------|-----------------|-----------------|------------------|
|-----------------|-----------------|-----------------|-------5/9-7/10-9-|
|-2-----2---------|-------2---------|-------------2-5-|---5-7------------|
|-----------------|---------------0-|-5---------------|------------------|
  Q.    E H         Q.    E Q.    E   H       Q   E E   E E E E E E E  E

|-----------------|-----------------||
|-7/9-5-----------|-----------------||
|-----------------|-----------------||
|-----------------|-----------------||
  E E Q   H         W


Key to rhythm notations:

W - Whole Note/Semi-Brieve
H - Half Note/Minim
Q - Quarter Note/Crotchet       Q. - Dotted Quarter Note
E - Eight Note/Quaver           E. - Dotted Eight Note
S - Sixteenth Note/Semi-Quaver  S. - Dotted Sixteenth Note
Добавлено: 19.03.2016
Другие материалы по этой песне:

Страница создана 28.03.2012
http://primanota.ru/prince/adore-chords.htm
Привет, Гость.
Предлагаем пройти революционный курс по гитаре.
Подарок от PrimaNota.Ru, забирай!