PrimaNota.ru - самый крупный в мире бесплатный архив песенных текстов, аккордов, табулатур и нот


Prince Royce - Addicted - текст песни, таба, видео

Регистрация Запомнить меня
Войти через:  Facebook Google Twitter Vk Yandex Mail.ru

Prince Royce - Addicted - текст песни, таба, видео

Печатать
Просмотров: 115
Hey all, this is my version of Prince Royce's Addicted. Hope it works for you.
The picking pattern might not be exactly the same, but just listen to him play it and do 
your own version or stick with mine.

****REVISED****


Chords (Not sure if the names are right)

   A  E7sus4  F#7  Dsus2  C#m7  F#m7    Bm7  Emaj  Dsus2  F#m                 
e| 0    X      X     0     4      9      2     0     5      2
B| 2    3      5     3     5     10      3     0     5      2
G| 2    2      4     2     4      9      2     1     7      2
D| 2    2      4     0     6     11      4     2     7      4
A| 0    2      4     X     4      9      2     2     5      4
E| X    X      X     X     X      X      X     0     X      2


Intro
  A             E7sus4   F#7      Dsus2
-----------------------------------0---------------5-------5-----------|
--2-------2-------3-------5-----------3---------3------3----3----------|
-----2------2-------2-------4-----------2-----2----------2----2--------|
--------2-------------2-------4----0-------0--------------------0------|
--0---------------2-------4--------------------------------------------|
-----------------------------------------------------------------------|

  A             E7sus4   F#7      Dsus2
-----------------------------------0---------------5--------5-----------|
--2-------2-------3-------5-----------3---------3----3-------3----------|
-----2------2-------2-------4-----------2-----2--------2-------2--------|
--------2-------------2-------4----0-------0-------------0--------------|
--0---------------2-------4---------------------------------------------|
------------------------------------------------------------------------|

VERSE: 
Sleeping in, Sunday Morning. . .
  A             E7sus4   F#7      Dsus2
-----------------------------------0---------------5-------5-----------|
--2-------2-------3-------5-----------3---------3------3----3----------|
-----2------2-------2-------4-----------2-----2----------2----2--------|
--------2-------------2-------4----0-------0--------------------0------|
--0---------------2-------4--------------------------------------------|
-----------------------------------------------------------------------|

playing fake, we're awake. . .
  A             E7sus4   F#7      Dsus2
-----------------------------------0---------------5--------5-----------|
--2-------2-------3-------5-----------3---------3----3-------3----------|
-----2------2-------2-------4-----------2-----2--------2-------2--------|
--------2-------------2-------4----0-------0-------------0--------------|
--0---------------2-------4---------------------------------------------|
------------------------------------------------------------------------|

Pre-chorus:

 I saved a place in my chest...
 C#m7            F#m7                     Bm7
------------------------------------------------------------------------|
--5------5-------9h10---------10-----------3-------3--------------------|
-----4-----4----------9------------9----------2-------2-----------------|
-------6----------------11-----------11---------4-----------------------|
--4--------------9------------9------------2----------------------------|
------------------------------------------------------------------------|

for you to rest your head. . . on me.
  Emaj  Dsus2  F#m               Dsus2  C#m7 Bm7             Emaj
-------------------------------------------------------------------------------|
---0-----5------2--------2---------5-----5----3--------3-------------0---------|
---1-----7---------4-------4-------7-------------2-------2-----------1---------|
----------------------2----------------------------4-------------2---------2---|
---2-----5-------------------------5-----4----2--------------------------------|
----------------2---------------------------------------------0----------------|

A part of me is a mess. . .
 C#m7            F#m7                     Bm7
------------------------------------------------------------------------|
--5------5-------9h10---------10-----------3-------3--------------------|
-----4-----4----------9------------9----------2-------2-----------------|
-------6----------------11-----------11---------4-----------------------|
--4--------------9------------9------------2----------------------------|
------------------------------------------------------------------------|

I must confess. . . it's time to come clean. . .
   Emaj  Dsus2  F#m               Dsus2  C#m7 Bm7             Emaj
-----------------------------------------------------5----------------0--------|
---0-----5------2--------2---------5-----5----3--------3--------------0--------|
---1-----7---------4-------4-------7---------------------2---------------1-----|
----------------------2----------------------------4-------4-----2-------------|
---2-----5-------------------------5-----4----2--------------------------------|
----------------2---------------------------------------------0----------------|

 CHORUS: 
I am addicted. . .
   A            E7sus4   F#7      Dsus2
-----------------------------------0---------------5-------5-----------|
--2-------2-------3-------5-----------3---------3------3----3----------|
-----2------2-------2-------4-----------2-----2----------2----2--------|
--------2-------------2-------4----0-------0--------------------0------|
--0---------------2-------4--------------------------------------------|
-----------------------------------------------------------------------|

No other woman's. . .
   A            E7sus4   F#7      Dsus2
-----------------------------------0---------------5--------5-----------|
--2-------2-------3-------5-----------3---------3----3-------3----------|
-----2------2-------2-------4-----------2-----2--------2-------2--------|
--------2-------------2-------4----0-------0-------------0--------------|
--0---------------2-------4---------------------------------------------|
------------------------------------------------------------------------|

I cannot resist. . .
  Bm7                                        Emaj
----------------------------------------------------------------------------|
--3--------3---------3----------3-------------0----------0------------------|
------2-------2----------2----------2-------------1---------1---------------|
--------4-------------------4----------4-------------2----------------------|
--2------------------2----------2-------------2-----------------------------|
----------------------------------------------------------------------------|

A single servings. . . addicted to your touch
  Emaj  Dsus2  F#m               Dsus2  C#m7 Bm7             Emaj
----------------------------------------------------------------------0--------|
---0-----5------2--------2---------5-----5----3--------3--------------0--------|
---1-----7---------4-------4-------7-------------2-------2---------------1-----|
----------------------2----------------------------4-------------2-------------|
---2-----5-------------------------5-----4----2--------------------------------|
----------------2---------------------------------------------0----------------|

Repeat all parts as necessary. I don't have tabs for the Bridge (I want you lips, I want 
your arms. . .) because I don't know it, but I'll work on it. This is my first tab; hope it's good.
Добавлено: 07.10.2013
Другие материалы по этой песне:
  • Аккорды и текст

Страница создана 22.09.2013
http://primanota.ru/prince-royce/addicted-chords.htm
Привет, Гость.
Предлагаем пройти революционный курс по гитаре.
Подарок от PrimaNota.Ru, забирай!