PrimaNota.ru - самый крупный в мире бесплатный архив песенных текстов, аккордов, табулатур и нот


Prince Charming - Playboy Mansion - таба, видео

Регистрация Запомнить меня
Войти через:  Facebook Google Twitter Vk Yandex Mail.ru

Prince Charming - Playboy Mansion - таба, видео

Печатать
Просмотров: 121
Prince Charming's Official Website: http://www.princecharmingmusic.com/

Awesome song by Prince Charming, it was the intro theme for Playboy: The Mansion, which 
a sick video game. There's two guitars for this song:

Guitar 1: Distorted, with wah-wah in the melodic parts and flanger through most of the song.

Guitar 2: Plain distortion.

. = Palm mute

Intro:

Guitar 1:

e|-------------------------------|
B|-------------------------------|
G|--------------------------8-6--|
D|--6-8-9----8-9-----8-9--9------|
A|---------7-------9-------------|
E|-------------------------------| x4

Guitar 2:

e|----------------------------------|
B|----------------------------------|
G|------------------4--4-4----------|
D|--6--6-6--2--2-2--4--4-4--4--4-4--|
A|--6--6-6--2--2-2--2--2-2--4--4-4--|
E|--4--4-4--0--0-0----------2--2-2--| x4

Guitar 1:

e|-----|
B|-----|
G|-----|
D|-4~~-|
A|-----|
E|-----| x1

Guitar 2:

e|-----|
B|-----|
G|-----|
D|--6--|
A|--6--|
E|--4--| x16
    .

Verse 1:

Both Guitars:

e|---------------------------------|
B|---------------------------------|
G|---------6-6-66----------6-6-----|
D|-6-6-66--6-6-66--4-4-44--6-6-44--|
A|-6-6-66--4-4-44--4-4-44--4-4-44--|
E|-4-4-44----------2-2-22------22--| x4
     . ..    . ..    . ..      ..

PreChorus 1:

Both Guitars:

e|-----------------|
B|-----------------|
G|-4-4-44--6-6-66--|
D|-4-4-44--6-6-66--|
A|-2-2-22--4-4-44--|
E|-----------------| x4

Chorus 1:

Both Guitars:

e|--------------------------------------|
B|--------------------------------------|
G|--------------------4--4-44-----------|
D|--6--6-66--2--2-22--4--4-44--4--4-44--|
A|--6--6-66--2--2-22--2--2-22--4--4-44--|
E|--4--4-44--0--0-00-----------2--2-22--| x4

Both Guitars:

e|-----|
B|-----|
G|-----|
D|--6--|
A|--6--|
E|--4--| x16
    .

Verse 2:

Both Guitars:

e|---------------------------------|
B|---------------------------------|
G|---------6-6-66----------6-6-----|
D|-6-6-66--6-6-66--4-4-44--6-6-44--|
A|-6-6-66--4-4-44--4-4-44--4-4-44--|
E|-4-4-44----------2-2-22------22--| x4
     . ..    . ..    . ..      ..

PreChorus 2:

Both Guitars:

e|-----------------|
B|-----------------|
G|-4-4-44--6-6-66--|
D|-4-4-44--6-6-66--|
A|-2-2-22--4-4-44--|
E|-----------------| x4

Chorus 2:

Both Guitars:

e|--------------------------------------|
B|--------------------------------------|
G|--------------------4--4-44-----------|
D|--6--6-66--2--2-22--4--4-44--4--4-44--|
A|--6--6-66--2--2-22--2--2-22--4--4-44--|
E|--4--4-44--0--0-00-----------2--2-22--| x4

Both Guitars:

e|-----|
B|-----|
G|-----|
D|--6--|
A|--6--|
E|--4--| x16
    .

Verse 3:

Guitar 2:

e|------------------------------------|
B|------------------------------------|
G|----------6-6-6-6-----------6-6-----|
D|-6-6-6-6--6-6-6-6--4-4-4-4--6-6-44--|
A|-6-6-6-6--4-4-4-4--4-4-4-4--4-4-44--|
E|-4-4-4-4-----------2-2-2-2------22--|x1
   . . . .  . . . .  . . . .  . . ..


e|------------------------------------|
B|------------------------------------|
G|----------6-6-6-6-----------6-6-----|
D|-6-6-6-6--6-6-6-6--4-4-4-4--6-6-44--|
A|-6-6-6-6--4-4-4-4--4-4-4-4--4-4-44--|
E|-4-4-4-4-----------2-2-2-2------22--|x1
   . . . .  . . . .  . . . .  . .

Both Guitars:

e|---------------------------------|
B|---------------------------------|
G|---------6-6-66----------6-6-----|
D|-6-6-66--6-6-66--4-4-44--6-6-44--|
A|-6-6-66--4-4-44--4-4-44--4-4-44--|
E|-4-4-44----------2-2-22------22--| x2
     . ..    . ..    . ..      ..

PreChorus 3:

Guitar 1:

e|---------|
B|---------|
G|-4~--6~--|
D|-4~--6~--|
A|-2~--4~--|
E|---------| x3

e|---------------|
B|---------------|
G|-4~--66666666--|
D|-4~--66666666--|
A|-2~--44444444--|
E|---------------| x1

Guitar 2:

e|-----------------|
B|-----------------|
G|-4-4-44--6-6-66--|
D|-4-4-44--6-6-66--|
A|-2-2-22--4-4-44--|
E|-----------------| x3

e|-------------------|
B|-------------------|
G|-4-4-44--66666666--|
D|-4-4-44--66666666--|
A|-2-2-22--44444444--|
E|-------------------| x1

Chorus 3:

Both Guitars:

e|--------------------------------------|
B|--------------------------------------|
G|--------------------4--4-44-----------|
D|--6--6-66--2--2-22--4--4-44--4--4-44--|
A|--6--6-66--2--2-22--2--2-22--4--4-44--|
E|--4--4-44--0--0-00-----------2--2-22--| x4


Guitar 1:

e|-------------------------------|
B|-------------------------------|
G|--------------------------8-6--|
D|--6-8-9----8-9-----8-9--9------|
A|---------7-------9-------------|
E|-------------------------------| x4

Guitar 2:

e|--------------------------------------|
B|--------------------------------------|
G|--------------------4--4-44-----------|
D|--6--6-66--2--2-22--4--4-44--4--4-44--|
A|--6--6-66--2--2-22--2--2-22--4--4-44--|
E|--4--4-44--0--0-00-----------2--2-22--| x4

Both Guitars End On:

e|------|
B|------|
G|------|
D|--4~--|
A|--4~--|
E|--2~--|
Добавлено: 08.06.2012
Другие материалы по этой песне:
  • Аккорды и текст

Страница создана 08.06.2012
http://primanota.ru/prince-charming/playboy-mansion-chords.htm
Привет, Гость.
Предлагаем пройти революционный курс по гитаре.
Подарок от PrimaNota.Ru, забирай!