PrimaNota.ru - самый крупный в мире бесплатный архив песенных текстов, аккордов, табулатур и нот


Primus - Winonas Big Brown Beaver - бас-таба, видео

Регистрация Запомнить меня
Войти через:  Facebook Google Twitter Vk Yandex Mail.ru

Primus - Winonas Big Brown Beaver - бас-таба, видео

Печатать
Просмотров: 98
This is the btab to Wynonna's Big Brown Beaver, an extraordinarly quick and
hard song to tab! Listen to tape for accuracy

Song: Wynonna's Big Brown Beaver
CD: Tales From the Punchbowl (track 3)
Band: PRIMUS
Bass and writer: Les Claypool

INTRO:
G -7-7--7-7--                   G -11-11--11-11--
D -0-0--0-0-- play 4 x's        D -0--0---0--0--- play 4 x's
A -----------  ---------        A ---------------  ---------
E------------                   E ---------------


                G -7-7--7--7-7--7--7-7--7
		D -0-0--0--0-0--0--0-0--0 play in the first "WOOOOOH" part.
		A -5-5--5--5-5--5--5-5--5  ------------
		E -----------------------

Chorus: Everytime i refer to the 'CHORUS' it's this part...
Played FAST!!!
G ---------7h9---12h10----------12-----17--
D -0-0-7h9----0-0-----12h10-1/10---3/15---- PART 1
A -----------------------------------------
E -----------------------------------------

G ---------7h9---12h10----------12-9--0--5-
D -0-0-7h9----0-0-----12h10-1/10----------- PART 2
A -----------------------------------------
E -----------------------------------------

G ---------7h9---12h10----------12-----17--
D -0-0-7h9----0-0-----12h10-1/10---3/15---- PART 3
A -----------------------------------------
E -----------------------------------------

G ---------7h9---12h10----------7----------
D -0-0-7h9----0-0-----12h10-0-7---9-7-6---- PART 4
A -----------------------------------------
E -----------------------------------------

Verse 1:

G ---------------------------------------------------
D ---------------------------------------------------
A -5-5--5-5--5-5--5-5--5-5--5-5--5-5-3-4-5-5-3-4-5-5-
E ---------------------------------------------------

(CHORUS)

Pre Verse 2:

G ---------------------------------------------------
D ------------------------------4-4-4-5-6-7----------
A -5-5--5-5--5-5--5-5--5-5--5-5------------4-5-6-7---
E ---------------------------------------------------

Verse 2:

G -------------------------------------11--------------
D -------------------------------------0---------------
A -5-5--5-5--5-5--5-5--5-5--5-5--5-5-5-----------------
E -----------------------------------------------------

(CHORUS)
Except on part four play: /play like a triplet 12,11,10\
                          |                             |
G --------7h9---10h12-----12-11-10-9--9-12-11-10-9-----/
D -0-0-7h9---0-0-----10h12------------------------9-9--
A -----------------------------------------------------
E -----------------------------------------------------

During first guitar solo play:

G -------------------------------
D ------------------------------- play that a couple times...
A -5-5-5-5-5-5-3h5-5-5-5-3h5-----
E -------------------------------

Then you strum:                             
 
G --11--11--         then play that solo     G--11-11--
D --0---0---         part again then:        D--0--0--- play twice
A ----------       			     A---------  ---------
E ----------                                 E---------

Then play this as a triplet several times:

G -7-6-5-                G --11-11--
D -------     then play: D --0--0---
A -------		 A ---------
E -------		 E ---------

Then before the third verse play:

G ------			G ---------------------
D ------  play 15 x's then play:D ---------------------
A -5-5--			A -5h3-5h3-5h3-5h3-5h3-
E ------			E ---------------------

Third Verse:

G --------------------------------------11-
D --------------------------------------0-- play this twice
A -5-5--5-5--5-5--5-5--5-5--5-5--5-5--5----
E -----------------------------------------

At the end of third verse play:

G -7-7--7-7--7-7--7-7--7-7--7-7--7-7--7-7-
D -0-0--0-0--0-0--0-0--0-0--0-0--0-0--0-0-
A -5-5--5-5--5-5--5-5--5-5--5-5--5-5--5-5-
E ----------------------------------------

(CHORUS w/alternative triplet ending)

(Then play the same stuff as in the first guitar solo)

After you play the last G -11-11--  play :
                        D -0--0---
play in triplets like the 9-8-7 part
G -17-16-15-				  G -11-
D ---------- after every fourth pair snap:D -0-- 
A ----------				  A ----
E ----------				  E ----

Then for the outro play:

G -7-7--7-7--7-7--7-7--11-11--11-11--11-11--11-11-
D -0-0--0-0--0-0--0-0--0--0---0--0---0--0---0--0--
A ------------------------------------------------
E ------------------------------------------------

G -7-7--7-7--7-7--7-7--5-5--5-5--5-5--5-5--5-5--
D -0-0--0-0--0-0--0-0--0-0--0-0--0-0--0-0--0-0--
A -5-5--5-5--5-5--5-5--3-3--3-3--3-3--3-3--3-3--
E ----------------------------------------------

That's it fast hard and FUN!!!
I can't find a person who can play the guitar part.

Tabbed: By Ryan Shoulders :)

Send comments, btabs to shoulded@ten-nash.ten.k12.tn.us
C U Later.

     
Добавлено: 10.09.2013
Другие материалы по этой песне:
  • Аккорды и текст

Страница создана 10.09.2013
http://primanota.ru/primus/winonas-big-brown-beaver-chords.htm
Привет, Гость.
Предлагаем пройти революционный курс по гитаре.
Подарок от PrimaNota.Ru, забирай!