PrimaNota.ru - самый крупный в мире бесплатный архив песенных текстов, аккордов, табулатур и нот


Primus - Welcome To This World - текст песни, таба, бас-таба, видео

Регистрация Запомнить меня
Войти через:  Facebook Google Twitter Vk Yandex Mail.ru

Primus - Welcome To This World - текст песни, таба, бас-таба, видео

Печатать
Просмотров: 175


Here's my updated version



Mmkay i like figured this out on a crappy squier 
guitar, and i have both the bass and the guitar 
sort of figured out
BTW: dont try to play this unless you know what youre
doing or you are familiar with the song

Intro (GUitar):
E:---------------------------------------------
B:---------------------------------------------
G:---------------------------------------------
D:---------------------------------------------
A:--9-9--99-10--9---9--8-----------------------
E:---------------------------------------------


Intro (6 string mahogony fretless bass)
:---------------------------------------------
:---------------------------------------------
:---------------------------------------------
:---------------------------------------------
:-1/12--12-12-12-12--11-11-11-12--------------
:---------------------------------------------

:---------------------------------------------
:---------------------------------------------
:---------------------------------------------
:---------------------------------------------
:---12-12-12-12--11-11-11-12------------------
:---------------------------------------------

:---------------------------------------------
:---------------------------------------------
:---------------------------------------------
:---------------------------------------------
:---12-12-12-12--11-11-11---12-12-12-12--11-11-11
:---------------------------------------------

:---------------------------------------------
:---------------------------------------------
:---------------------------------------------
:---------------------------------------------
:---12-12-12-12--11-11-11---12-12-12-11-------
:---------------------------------------------

Main Riff (for Both)
-------8--9-9--8--7----------------
-----------------------------------
------6--7----6--5-----------------
-----------------------------------
-----------------------------------

I got the main riff from some other guy, so it 
might sound different or not go with mine at all

SGT_Baker@hotmail.com if you want to give me some
cash so i can buy a CT bass thanks


Добавлено: 21.11.2013
Другие материалы по этой песне:

Страница создана 22.02.2012
http://primanota.ru/primus/welcome-to-this-world-chords.htm
Привет, Гость.
Предлагаем пройти революционный курс по гитаре.
Подарок от PrimaNota.Ru, забирай!