PrimaNota.ru - самый крупный в мире бесплатный архив песенных текстов, аккордов, табулатур и нот


Primus - Tragedys A Comin - текст песни, таба, бас-таба, видео

Регистрация Запомнить меня
Войти через:  Facebook Google Twitter Vk Yandex Mail.ru

Primus - Tragedys A Comin - текст песни, таба, бас-таба, видео

Печатать
Просмотров: 222
Primus: Tragedy's a' comin'

Tuning: EADGBe

e|----------------|
B|-12-12-12-12----|
G|----------------|
D|---9--9--9--9---|
A|----------------|
E|----------------|X3

e|--------------------|
B|-13-13-12-12-10-----|
G|--------------------|
D|---9--9--9--9--9----|
A|--------------------|
E|--------------------|

e|----------------|
B|-12-12-12-12----|
G|----------------|
D|---9--9--9--9---|
A|----------------|
E|----------------|X2

e|--------12-12---|
B|-13-13----------|
G|----------------|
D|---9--9---9--9--|
A|----------------|
E|----------------|

e|----------------|
B|-13-13-12-12-10-|
G|----------------|
D|---9--9--9--9--9|
A|----------------|
E|----------------|

e|----------------|
B|-12-12-12-12----|
G|----------------|
D|---9--9--9--9---|
A|----------------|
E|----------------|X3

e|------------------|
B|-13-13-12-12-10---|
G|------------------|
D|---9--9--9--9--9--|
A|------------------|
E|------------------|

e|---------------------------|
B|-12-12-12-12-12-13-13-13---|
G|---------------------------|
D|---9--9--9--9--9--9--9--9--|
A|---------------------------|
E|---------------------------|

e|-------12-15b---|
B|-13s15----------|
G|----------------|
D|----------------|
A|----------------|
E|----------------|


Pre-verse 0:20

e|---------------------10s/-|
B|-3-3---3--3--3--3-3---9s/-|
G|-4-4---4--4--4--4-4-------|
D|--------------------------|
A|--------------------------|
E|--------------------------|X4

Chorus 0:37

e|---------------------10s/-|
B|-3-3---3--3--3--3-3---9s/-|
G|-4-4---4--4--4--4-4-------|
D|--------------------------|
A|--------------------------|
E|--------------------------|

e|--------------------------|
B|-3-3---3--3--3--3-3--2s(8)|
G|-4-4---4--4--4--4-4--3s(9)|
D|--------------------------|
A|--------------------------|
E|--------------------------|

e|--------------------------|
B|-3-3---3--3--3--3-3-3-----|
G|-4-4---4--4--4--4-4-4-----|
D|--------------------------|
A|--------------------------|
E|--------------------------|

Verse 0:53 "From the middle of nowhere"

e|---------------------|
B|---------------------|
G|-----1---------------|
D|----2--0h2---0-------|
A|---------------------|
E|-4---------4---4-0---| X4

EASY-TO-FOLLOW SONG STRUCTURE LIST AT BOTTOM 
                                             
After this you just play the                
chorus one more time. 1:10                   
I mention this so that you
understand there is no use 
to tab it once more.

Then you have the verse once more
untill 1:44 were you play the 
chorus.

Then at the 2 minute blank you
play the verse without the vocal 
for some time. Then regular vocal
overlap. 

After this back to the chorus 
and through the solo wich i am
going to tab later!

STRUCTURE LIST:

- Main riff
- Chorus
- Verse
- Chorus
- Verse
- Chorus
- Verse riff (Without vocal)
- Verse
- Chorus
- Solo
- Break (Part of solo?)
- Main riff
- Bass solo
- Verse
- Chorus

Well, as you can see there
is a lot back and forth with
the choruses and verses. I 
hope you manage to learn the
whole system and structure of
it.
Добавлено: 06.06.2012
Другие материалы по этой песне:
  • Аккорды и текст

Страница создана 06.06.2012
http://primanota.ru/primus/tragedys-a-comin-chords.htm
Привет, Гость.
Предлагаем пройти революционный курс по гитаре.
Подарок от PrimaNota.Ru, забирай!