PrimaNota.ru - самый крупный в мире бесплатный архив песенных текстов, аккордов, табулатур и нот


Primus - The pressman1 - бас-таба

Регистрация Запомнить меня
Войти через:  Facebook Google Twitter Vk Yandex Mail.ru

Primus - The pressman1 - бас-таба

Печатать
Просмотров: 108


The Pressman By Primus
Bass line written by: Les Claypool

im fairly certain this is correct i figured it out by watching him play
it on the hullucino-genetics tour.

this is the order in which he plays it... you will have to figure out
the timing for either the live version or the record version

legend:
s = slap
^ = flemeco strum down
h = hammer on
~ = bend string
 = slide back

g -----------------------------------------------
d -----------------------------------------------
a -9~-9-10-9-------------------------------------
e -----------------------------------------------

g ------------9h-10h-11--------------------------
d -----------------------9-----------------------
a -9~-9-10-9-------------------------------------
e -----------------------------------------------

   s  s s  s     ^   ^
g -----------------------------------------------
d ---------------10-9---------------------------
a ---------------10-9---------------------------
e -9~-9-10-9-------------------------------------

Tabbed by: Mike Dubbs
Email: rastalocks423@yahoo.com

Добавлено: 26.01.2014
Другие материалы по этой песне:
  • Аккорды и текст

Страница создана 26.01.2014
http://primanota.ru/primus/the-pressman1-chords.htm
Привет, Гость.
Предлагаем пройти революционный курс по гитаре.
Подарок от PrimaNota.Ru, забирай!