PrimaNota.ru - самый крупный в мире бесплатный архив песенных текстов, аккордов, табулатур и нот


Primus - The Heckler - аккорды и текст, таба, бас-таба, видео

Регистрация Запомнить меня
Войти через:  Facebook Google Twitter Vk Yandex Mail.ru

Primus - The Heckler - аккорды и текст, таба, бас-таба, видео

Печатать
Просмотров: 168
The Heckler
Primus
		   title> Guitar tab for Primus' The Heckler  /title>

 h1> PRIMUS - The Heckler  /h1>

 p> Tabbed by Eric ( a
href="mailto:lars@ecst.csuchico.edu"> var>lars@ecst.csuchico.edu /var> /a>).
 p>

 hr>

 pre>

      BASSline

 The Heckler intro and main
e:-----------------------------|
B:-----------------------------|
G:-----------------------------|
D:-----------------------------|
A:---------/12--10--12---------|
E:7--3--7---------------7--3--7|


      GUITAR

      The Heckler main part
e:---------------------------------|
B:---------------------------------|
G:---------------------------------|
D:---7------7------7------7--------|
A:---6------6------6------6--------|
E:5------5------5------5-----------|     
Добавлено: 24.08.2013
Другие материалы по этой песне:

Страница создана 07.03.2012
http://primanota.ru/primus/the-heckler-chords.htm
Привет, Гость.
Предлагаем пройти революционный курс по гитаре.
Подарок от PrimaNota.Ru, забирай!