PrimaNota.ru - самый крупный в мире бесплатный архив песенных текстов, аккордов, табулатур и нот


Primus - Restin Bones - текст песни, бас-таба, видео

Регистрация Запомнить меня
Войти через:  Facebook Google Twitter Vk Yandex Mail.ru

Primus - Restin Bones - текст песни, бас-таба, видео

Печатать
Просмотров: 137
Уроки эстрадного вокала в Санкт-Петербурге
Авторы музыки: Les Claypool, Larry LaLonde, Bryan "Brain" Mantia
Авторы текста: Les Claypool
s = slap
p = pop
V = downstroke
^ = upstroke

Intro:
   V ^ V     V ^ V     V ^ V
G|----------------------------|------------|
D|-7-9-7-----7-9-7-----7-9-7/-|------------|
A|-7-9-7-----7-9-7-----7-9-7/-|------------|
E|----------------------------|------------|
B|----------------------------|-0-3--3-4-3-|
                                s p  s s s

   V ^ V                             V ^ V
G|-------|-------------------------|-------|
D|-7-9-7-|-------------------------|-7-9-7-|
A|-7-9-7-|-------------------------|-7-9-7-|
E|-------|-------------------------|-------|
B|-------|-0-3--3-4-3---0-3--3-4-3-|-------|
           s p  s s s   s p  s s s

Main Riff:                   V ^ V
G|------------|------------|-------|
D|------------|------------|-7-9-7-|
A|------------|------------|-7-9-7-|
E|------------|------------|-------|
B|-0-3--3-4-3-|-0-3--3-4-3-|-------|
   s p  s s s   s p  s s s
Добавлено: 12.07.2012
Другие материалы по этой песне:
  • Аккорды и текст

Страница создана 18.03.2012
http://primanota.ru/primus/restin-bones-chords.htm
Привет, Гость.
Предлагаем пройти революционный курс по гитаре.
Подарок от PrimaNota.Ru, забирай!