PrimaNota.ru - самый крупный в мире бесплатный архив песенных текстов, аккордов, табулатур и нот


Primus - Pure Imagination - бас-таба, видео

Регистрация Запомнить меня
Войти через:  Facebook Google Twitter Vk Yandex Mail.ru

Primus - Pure Imagination - бас-таба, видео

Печатать
Просмотров: 59
Авторы музыки: Leslie Bricusse, Anthony Newley

Reversed Sounding Intro
G-------6---|-----686-|---6--------------------|---------8-6-10--|--6-8-6-------|
D--8--------|-8-------|-8-----5-6-5-6-5-6-5-6--|--5-6-5----------|----------8b--|
A-----------|---------|------------------------|-----------------|--------------|
E-----------|---------|------------------------|-----------------|--------------|

Main Riff
G--------------------------------------1----------|
D--------------------------------1h2p1---1h2p1----|
A-1----1-4-1----1-4-1----1-4-1----------------1---|
E-------------------------------------------------|

Variant Riff
G----------------------------1------1-------1-----------|
D----------------------1h2p1---1h2p1---1h2p1---1h2p1----|
A-1----1-4-1----1-4-1-------------------------------1---|
E-------------------------------------------------------|


come with me...
G------------------5--6-5-6-5-6-5----|
D-----6-----6---------------------6--|
A---4-----4-----4--------------------| 
E-6-----6-----6----------------------|


take a look...                     1.    2./3./4.
G------------------------------------|----|----|
D-----3-4-6-3------1-----------------|----|-3~-|
A---4----------------4-3-4-3-4-3-4-3-|-3~-|----|
E-6----------------------------------|----|----|


G-6-8-6-8-6--5---------------------------|
D--------------6-------------------------|
A----------------8------8-9-8-9-8---8-10-|
E---------------------------------9------|

G-5-6-5-6-5--5-----3-5------3-5-3-5-3------------|
D--------------6-----------------------1-3-4-5-6-|
A------------------------------------------------|
E------------------------------------------------|
if you want to view...


SOLO
G------------6-|-8---6-8-9/11-9-8h9p8-|-6------------5-6-|-56-8--8-6-5-6-|
D-8--8--8--8---|----------------------|---8-8---8---8----|---------------|
A--------------|----------------------|------------------|---------------|
E--------------|----------------------|------------------|---------------|

G------6-----6--|--6--6-8-6-|----6-----56-|-568---11-10-8-6---|
D-8---8-8---8-8-|-8-8-------|-8-8-8---8---|-----------------8-|
A---------------|-----------|-------------|-------------------|
E---------------|-----------|-------------|-------------------|


             ^
g--------10--x---|--10-x---10-x--|--10-x---10-x--|-121212-1110-9------|
d--8--8--8---x---|--8--x---8--x--|--8--x---8--x--|---------------10\--|
a----------------|---------------|---------------|--------------------|
e----------------|---------------|---------------|--------------------|
Добавлено: 12.08.2015
Другие материалы по этой песне:
  • Аккорды и текст

Страница создана 12.08.2015
http://primanota.ru/primus/pure-imagination-chords.htm
Привет, Гость.
Предлагаем пройти революционный курс по гитаре.
Подарок от PrimaNota.Ru, забирай!