PrimaNota.ru - самый крупный в мире бесплатный архив песенных текстов, аккордов, табулатур и нот


Primus - Pudding Time - текст песни, таба, бас-таба, видео

Регистрация Запомнить меня
Войти через:  Facebook Google Twitter Vk Yandex Mail.ru

Primus - Pudding Time - текст песни, таба, бас-таба, видео

Печатать
Просмотров: 143
There were no tabs for this song, and I think this is 100% right, or at least 
close. This was really hard to find out and took long to tab so please rate it well!


Standard tuning: E A D G B E


 * = Natural harmonic
PM.= Palm mute
 x = Ghost note
 p = Pull-off
 h = Hammer-on
 T = Tap
 / = slide up
 \ = slide down
 ~ = Vibrato
 t = Tremolo bar dip
 b = bend
 r = Release bend


Intro:

e|-----------------------------------0---------------------------|
B|-----------------------------------0----12*---7*---------------|
G|-----------------------------------0----12*--------5*----------|
D|---------------------2-2---2-2---2-2---------------------------|
A|---------------------2-2---2-2---2-2---------------------------|
E|---------------------0-0---0-0---0-0---------------------------|


e|-----------------------------------|
B|-----------------------------------|
G|-----------------------------------|
D|------9-----9-----9-----9-----9----| x2
A|------7-----7-----7-----7-----7----|
E|--0-0-0-0-0-0-0-0-0-0-0-0-0-0-0----|
    PM.   . .   . .   . .   . .


e|----------------------------0---|
B|----------------------------0---|
G|--------------15---15---15--0---|
D|--------------14---14---14--14--| x8
A|--13-13-13-13----13---13--------|
E|--------------------------------|


e|--12h15p12---------12h15p12---------12h15p12----------|
B|-----------14---------------14---------------14~~-----|
G|------------------------------------------------------|
D|------------------------------------------------------|
A|------------------------------------------------------|
E|------------------------------------------------------|


e|--12h15p12---------12h15p12-----------------|
B|-----------14---------------14--------------|
G|------------------------------------12t-----|
D|--------------------------------------------|
A|--------------------------------------------|
E|--------------------------------------------|


e|--12h15p12---------12h15p12---------12h15p12----------|
B|-----------14---------------14---------------14~~-----|
G|------------------------------------------------------|
D|------------------------------------------------------|
A|------------------------------------------------------|
E|------------------------------------------------------|


e|--12h15p12---------12h15p12---------------------------|
B|-----------14---------------14------------------------|
G|------------------------------------0---/12-----------|
D|------------------------------------------------------|
A|------------------------------------------------------|
E|------------------------------------------------------|



Verse 1:

Ok, this part requires some explanation. The harmonics are not actually harmonics, 
you just need to strum the tiny part of the strings above the nut, making a high pitch sound.

                       T              T
e|-----*-----------------------------------*-----|
B|-----*-----------------------------------*-----|
G|-----*-------------------x-10------------*-----|
D|-----*-------------------x-10-------18---*-----|
A|-----*-------------------x-8-------------*-----|
E|-----*----------0h2--16--------0h2-------*-----|


         T              T
e|---------------------------*-----|
B|---------------------------*-----|
G|-----------x-10------------*-----|
D|-------18--x-10-------18---*-----|
A|-----------x-8-------------*-----|
E|--0h2------------0h2-------*-----|


         T              T
e|-----------------------------------|
B|-----------------------------------|
G|-----------x-10-----------/16------|
D|-------18--x-10-------18-----------|
A|-----------x-8---------------------|
E|--0h2------------0h2---------------|



Chorus:

e|---------------------------------------------|
B|---------------------------------------------|
G|--6----/11b12----\6----/16b17r16----\11------|
D|---------------------------------------------| x2
A|---------------------------------------------|
E|---------------------------------------------|



Verse 2:

                       T              T
e|-----*-----------------------------------*-----|
B|-----*-----------------------------------*-----|
G|-----*-------------------x-10------------*-----|
D|-----*-------------------x-10-------18---*-----|
A|-----*-------------------x-8-------------*-----|
E|-----*----------0h2--16--------0h2-------*-----|


         T              T
e|---------------------------*-----|
B|---------------------------*-----|
G|-----------x-10------------*-----|
D|-------18--x-10------------*-----|
A|-----------x-8-------------*-----|
E|--0h2------------0h2--16---*-----|


         T              T
e|---------------------------*-----|
B|---------------------------*-----|
G|-----------x-10------------*-----|
D|-----------x-10-------18---*-----|
A|-----------x-8-------------*-----|
E|--0h2--16--------0h2-------*-----|

         T             T
e|-----------------------------------|
B|-----------------------------------|
G|-----------x-10-----------/16------|
D|-------18--x-10------18------------|
A|-----------x-8---------------------|
E|--0h2------------0h2---------------|



Chorus:

e|---------------------------------------------|
B|---------------------------------------------|
G|--6----/11b12----\6----/16b17r16----\11------|
D|---------------------------------------------|
A|---------------------------------------------|
E|---------------------------------------------|



Break:

e|----------------------------0---|
B|----------------------------0---|
G|--------------15---15---15--0---|
D|--------------14---14---14--14--| x8
A|--13-13-13-13----13---13--------|
E|--------------------------------|


e|--12h15p12---------12h15p12---------12h15p12----------|
B|-----------14---------------14---------------14~~-----|
G|------------------------------------------------------|
D|------------------------------------------------------|
A|------------------------------------------------------|
E|------------------------------------------------------|


e|--12h15p12---------12h15p12-----------------|
B|-----------14---------------14--------------|
G|-------------------------------------12t----|
D|--------------------------------------------|
A|--------------------------------------------|
E|--------------------------------------------|


e|--12h15p12---------12h15p12---------12h15p12----------|
B|-----------14---------------14---------------14~~-----|
G|------------------------------------------------------|
D|------------------------------------------------------|
A|------------------------------------------------------|
E|------------------------------------------------------|


e|--12h15p12---------12h15p12-----------------|
B|-----------14---------------14--------------|
G|-------------------------------------12t----|
D|--------------------------------------------|
A|--------------------------------------------|
E|--------------------------------------------|


e|----------------------------0---|
B|----------------------------0---|
G|--------------15---15---15--0---|
D|--------------14---14---14--14--| x4
A|--13-13-13-13----13---13--------|
E|--------------------------------|



Verse 3:

                                  T              T
e|--0----------*----------*---------------------------*------|
B|--0----------*----------*---------------------------*------|
G|--0----------*----------*-----------x-10------------*------|
D|--14---------*----------*-------18--x-10-------18---*------|
A|-------------*----------*-----------x-8-------------*------|
E|-------------*----------*--0h2------------0h2-------*------|


         T              T
e|---------------------------*-----|
B|---------------------------*-----|
G|-----------x-10------------*-----|
D|-------18--x-10-------18---*-----|
A|-----------x-8-------------*-----|
E|--0h2------------0h2-------*-----|


         T              T
e|---------------------------------|
B|---------------------------------|
G|-----------x-10-----------x-10---|
D|-----------x-10-----------x-10---|
A|-----------x-8------------x-8----|
E|--0h2--16--------0h2--16---------|


         T              T
e|---------------------------------|
B|---------------------------------|
G|-----------x-10------------------|
D|-------18--x-10-------18---------|
A|-----------x-8-------------------|
E|--0h2------------0h2-------------|



Bridge:

e|----------------------------------------------------------|
B|----------------------------------------------------------|
G|----------------------------------------------------------|
D|--7--10-7--10-7--10-7/8\7-7--7--10-7--10-7/8\7---7/8\7-7--| x3
A|--7--10-7--10-7--10-7/8\7-7--7--10-7--10-7/8\7---7/8\7-7--|
E|----------------------------------------------------------|


e|----------------------------------------------------------|
B|----------------------------------------------------------|
G|-----------------------------------------8-8-8-8-8-8-8-8--|
D|--7--10-7--10-7--10-7/8\7-7--7--10-7--10-8-8-8-8-8-8-8-8--| x1
A|--7--10-7--10-7--10-7/8\7-7--7--10-7--10------------------|
E|----------------------------------------------------------|


e|-------------------------------------------------------------|
B|-------------------------------------------------------------|
G|--------------8-8-8-8-8-8-8-8---------------8-8-7-7-6-6-5-5--|
D|--7--10-7--10-8-8-8-8-8-8-8-8---7--10-7--10-8-8-7-7-6-6-5-5--| x1
A|--7--10-7--10-------------------7--10-7--10------------------|
E|-------------------------------------------------------------|


e|--------------------------------------------------------|
B|--------------------------------------------------------|
G|---------------x-8---x-7---------------1010101010101010-|
D|--7--10-7--10--x-8---x-7---7--10-7--10-1010101010101010-| x1
A|--7--10-7--10--------------7--10-7--10------------------|
E|--------------------------------------------------------|


e|--------------------------------------------------|
B|--------------------------------------------------|
G|--------------------------------------------------|
D|--7--10-7--10-7--10-7--10-7--10-7--10-7--10-7--10-| x8
A|--7--10-7--10-7--10-7--10-7--10-7--10-7--10-7--10-|
E|--------------------------------------------------|



Verse 4:

                                   T              T
e|--*-----------*----------*--------------------------*-----|
B|--*-----------*----------*--------------------------*-----|
G|--*-----------*----------*-----------x-10-----------*-----|
D|--*-----------*----------*-------18--x-10-------18--*-----|
A|--*-----------*----------*-----------x-8------------*-----|
E|--*-----------*----------*--0h2------------0h2------*-----|


         T              T
e|---------------------------*-----|
B|---------------------------*-----|
G|-----------x-10------------*-----|
D|-------18--x-10-------18---*-----| x2
A|-----------x-8-------------*-----|
E|--0h2------------0h2-------*-----|


         T
e|---------------------------------|
B|---------------------------------|
G|-----------x-10---------/16------|
D|-------18--x-10------------------|
A|-----------x-8-------------------|
E|--0h2------------0h2-------------|



Chorus:

e|---------------------------------------------|
B|---------------------------------------------|
G|--6----/11b12----\6----/16b17r16----\11------|
D|---------------------------------------------|
A|---------------------------------------------|
E|---------------------------------------------|


Break:

e|----------------------------0---|
B|----------------------------0---|
G|--------------15---15---15--0---|
D|--------------14---14---14--14--| x7
A|--13-13-13-13----13---13--------|
E|--------------------------------|


e|----------------------------0-t--|
B|----------------------------0-t--|
G|--------------15---15---15--0-t--|
D|--------------14---14---14--14t--| x1
A|--13-13-13-13----13---13---------|
E|---------------------------------|
Добавлено: 22.11.2013
Другие материалы по этой песне:

Страница создана 09.03.2012
http://primanota.ru/primus/pudding-time-chords.htm
Привет, Гость.
Предлагаем пройти революционный курс по гитаре.
Подарок от PrimaNota.Ru, забирай!