PrimaNota.ru - самый крупный в мире бесплатный архив песенных текстов, аккордов, табулатур и нот


Primus - Over The Electric Grapevine - текст песни, таба, бас-таба, видео

Регистрация Запомнить меня
Войти через:  Facebook Google Twitter Vk Yandex Mail.ru

Primus - Over The Electric Grapevine - текст песни, таба, бас-таба, видео

Печатать
Просмотров: 223
Artist: Primus
Song: Over the Electric Grapevine
Album: Tales from the Punchbowl (1995)
Tuning: E-A-D-G-B-e
Tabbed by: Jeremy Hill

Intro/Verse:
e|---0----1----3-----5----0----1----3-----5--------------|
B|--2----2----2----2-5---2----2----2----2-5--------------|
G|-------------------------------------------------------|
D|-------------------------------------------------------|
A|-0----0----0----0-----0----0----0----0-----------------|
E|-------------------------------------------------------|

e|---12---13---15---12-----12---13---15---17------------|
B|------------------------------------------------------|
G|-14---14---14---14-----14---14---14---14--------------|
D|------------------------------------------------------|
A|------------------------------------------------------|
E|------------------------------------------------------|

Chorus:
 play notes with the singing
e|------------------------------------------------------|
B|------------------------------------------------------|
G|--6----6-6----6-6-9-6---------------------------------|
D|----7------7----------7-------------------------------|
A|------------------------------------------------------|
E|------------------------------------------------------|


 1st Solo:
e|----------------------------------------------------------|
B|-----------------------------------14---------------------|
G|-------12h14p12--------12h14p12---------------------------|
D|----11----------11--------------11------------------------|
A|-12-----------------12------------------------------------|
E|----------------------------------------------------------|

e|------------------------------------------------------|
B|------------------------------------------------------|
G|-12h14p12-------------------------12h14p12------------|
D|----------11-14-14-13-11-11----11----------11---------|
A|----------------------------12----------------12------|
E|------------------------------------------------------|

e|-----------------------------------------------------|
B|--------------14-------------------------------------|
G|--12h14p12--------12h14p12----12-12-13-14------------|
D|-----------11--------------11------------------------|
A|-----------------------------------------------------|
E|-----------------------------------------------------|


e|---------------------------------|    e|--------------------------|
B|---------------------------------|    B|--------------------------|
G|---------------------------------|    G|--9/7~-----9/7~-----9/7~--|
D|--x/7\x---x/7\x---x/7\x---x/7\x--|    D|--9/7~-----9/7~-----9/7~--|
A|--x/7\x---x/7\x---x/7\x---x/7\x--|    A|--7/5~-----7/5~-----7/5~--|
E|--x/5\x---x/5\x---x/5\x---x/5\x--|    E|--------------------------|


 2nd Solo:                                    \/Whistling\/
e|-------------------------------------------------------------------------------|
B|-------------------------------------------------------------------------------|
G|--14-15-14-----------------------------------------------------------------14--|
D|------------14-12-11-11----11--------9-10-11-12-13-14-13-14-17-16-16-14-13-----|
A|------------------------14----14-12--------------------------------------------|
E|-------------------------------------------------------------------------------|

e|-------------------16-------------------------------------------------------------------|
B|-16-16-15-16-15-14----------------------------------------------------------------------|
G|----------------------14-13-14--13------------------------------------------------------|
D|-----------------------------------15-14----------------11-9-13-11-13-15-17-17-19-15-17-|
A|-----------------------------------------13-12-10-10-12---------------------------------|
E|----------------------------------------------------------------------------------------|

e|------------------------16----------------|
B|------------------16----------------------|
G|--16-14--16-16-16----18-----18-16--15p14--|
D|------------------------------------------|
A|------------------------------------------|
E|------------------------------------------|

 Outro Solo (W/ Delay):
e|--------------b8--------------------------------------------------------------|
B|-----------------9b~----------------------------------------------------------|
G|--b8---8-8-8---------8~-----------------------------------------------11------|
D|------------------------10~-----/16--------------------------------10-----11--|
A|----------------------------9~-------15---b4----/9--10b--9-9--7--7--------9---|
E|----------------------------------------------3-------------------------------|


e|-------------------------------------------------------------|
B|---------------------------------------------------------16--|
G|--10-------------------------------------------------14------|
D|------10-10-10-10-10-10-10-10-------------------b13----------|
A|-------------------------------2b-2b-2-----------------------|
E|----------------------------------------2b~-2----------------|

       PM    PM    PM    PM    PM    PM    PM
e|---------------------------------------------|
B|---------------------------------------------|
G|--14-14-14-14-14-14-14-15-14-15-15-17-15-17--|
D|---------------------------------------------|
A|---------------------------------------------|
E|---------------------------------------------|

e|--------------------------------------------------------------------------|
B|----------------------------b17--17h18p17h18p17h18p17h18p17h18p17h18--18~-|
G|--17p15---17p15---17~-----------------------------------------------------|
D|-------14------14---------------------------------------------------------|
A|--------------------------------------------------------------------------|
E|--------------------------------------------------------------------------|
                                                           bend
e|----------------------------------|
B|----------------------------------|
G|----------------------------------|
D|--14~--14-14-14--14-14--14-12-11--|
A|----------------------------------|
E|----------------------------------|

e|--------------------------------------------------------------------------------------------|
B|---------13---------------------------------------------------------------------------------|
G|--12--------12--------17--17--17--17--17--17--17--17--17--17--17--17--17-17-17--------------|
D|------12-------11-/-16--16--16--16--16--16--16--16--16--16--16--16--16--------16--16-16-16--|
A|--------------------------------------------------------------------------------------------|
E|--------------------------------------------------------------------------------------------|

e|-------------------------------------------------------|
B|-------------------------------------------------------|
G|----------------3+--3+--3+~--3.5+----------------------|
D|---5+--4+-----5+------------------3+--3+--3+~----------|
A|---------5+------------------------------------b3--3b--|
E|-------------------------------------------------------|
Добавлено: 16.06.2012
Другие материалы по этой песне:

Страница создана 09.03.2012
http://primanota.ru/primus/over-the-electric-grapevine-chords.htm
Привет, Гость.
Предлагаем пройти революционный курс по гитаре.
Подарок от PrimaNota.Ru, забирай!