PrimaNota.ru - самый крупный в мире бесплатный архив песенных текстов, аккордов, табулатур и нот


Primus - My name is mud1 - бас-таба, видео

Регистрация Запомнить меня
Войти через:  Facebook Google Twitter Vk Yandex Mail.ru

Primus - My name is mud1 - бас-таба, видео

Печатать
Просмотров: 204
Уроки эстрадного вокала в Санкт-Петербурге


Name:My Name Is Mud
Artist:Primus
Album:Pork Soda

Most of the tabs that are on here are ok, but when I watched him play it live on the DVD, he 
plays it a little bit cooler.

Everything slapped

Intro
G-----------
D-----------
A-----------
E------------
B--10------

G------------------------------------------------
D------------------------------------------------
A-------------------------------------------------
E--------------0h222----------------0h222----
B-0h2-0h2------------0h2-0h2----------------

G---------------------------------------------
D---------------------------------------------
A----------------------------------0---
E--------------0h222---------------0----
B-0h2-0h2------------0h2-0h2-------0-----                                                                                  distortion

Chorus
G------------------------------------------
D------------------------------------------
A------------------------------------------
E--------------222--------------222-----
B-0h2-0h2----------0h2-0h2-----------

Variations inbetween

G-------------------------------------------------
D-------------------------------------------------
A-------------------------------------------------
E--------------141414---------------141414----
B-12h14-12h14---------12h14-12h14------------------

Verse

G--------------------------------------------
D--------------------------------------------
A--------------------------------------------
E--------------xxx-------------------x-----
B-xxxhxxx------------xxxhxxx-----------


End

G------------------------
D------------------------
A------------------------
E-----------------------------
B-----------------------------


Добавлено: 05.01.2014
Другие материалы по этой песне:
  • Аккорды и текст

Страница создана 05.01.2014
http://primanota.ru/primus/my-name-is-mud1-chords.htm
Привет, Гость.
Предлагаем пройти революционный курс по гитаре.
Подарок от PrimaNota.Ru, забирай!