PrimaNota.ru - самый крупный в мире бесплатный архив песенных текстов, аккордов, табулатур и нот


Primus - Mr Knowitall - текст песни, бас-таба, драм-таба, видео

Регистрация Запомнить меня
Войти через:  Facebook Google Twitter Vk Yandex Mail.ru

Primus - Mr Knowitall - текст песни, бас-таба, драм-таба, видео

Печатать
Просмотров: 142
 Love this song. Best guitar solo off Frizzle Fry.

Main riff
G|----7-7---7----7----7-|
D|----7-7---7----7----7-|
A|-19t---19t--19t--19t--|
E|-19t---19t--19t--19t--|

Bridge riff
G|-9\--------|
D|-9\--------|
A|-7\--------| x3
E|-0--8p7p5\-| 

Then this x1
G|-9\-0h7-9-9-----|
D|-9\-0h7-9-9-9-7-|
A|-7\---------9-7-|
E|-0--------------|

Before guitar solo
E|-0-----------|

Guitar solo
G|------4------------4---|
D|------4------------4---|
A|-----------------------|
E|-12-12--12-12-12-12-12-|

Back into verse
G|-5-5-5-5-5-5-5--------|
D|-5-5-5-5-5-5-5--------|
A|----------------------|
E|---------------8-7-5\-|
Добавлено: 12.08.2013
Другие материалы по этой песне:

Страница создана 10.03.2012
http://primanota.ru/primus/mr-knowitall-chords.htm
Привет, Гость.
Предлагаем пройти революционный курс по гитаре.
Подарок от PrimaNota.Ru, забирай!