PrimaNota.ru - самый крупный в мире бесплатный архив песенных текстов, аккордов, табулатур и нот


Primus - Jellikit - текст песни, таба, бас-таба, видео

Регистрация Запомнить меня
Войти через:  Facebook Google Twitter Vk Yandex Mail.ru

Primus - Jellikit - текст песни, таба, бас-таба, видео

Печатать
Просмотров: 187
slap all notes on the E string and you can either pop or strum the notes on the D and G 
it sounds good either way

Do this riff up until the drum solo
G---------9--------9---------9---------9\11-|
D---------9--------9---------9---------9\11-|
A-------------------------------------------|
E-x-x-x-x---x-x-x-x---x-x-x-x---x-x-x-x-----|

Cool Part after the drum solo a few times then go back to main riff
G---9-8-7-6-8-7-6-----------12-11-10-9-11-10-9--------|
D---9-8-7-6-8-7-6-----------12-11-10-9-11-10-9--------|
A-----------------------------------------------------|
E-0----------------9~~~~---0--------------------9~~~~-|
Добавлено: 18.05.2012
Другие материалы по этой песне:
  • Аккорды и текст

Страница создана 29.02.2012
http://primanota.ru/primus/jellikit-chords.htm
Привет, Гость.
Предлагаем пройти революционный курс по гитаре.
Подарок от PrimaNota.Ru, забирай!