PrimaNota.ru - самый крупный в мире бесплатный архив песенных текстов, аккордов, табулатур и нот


Primus - Hello Skinnyconstantinople - бас-таба, видео

Регистрация Запомнить меня
Войти через:  Facebook Google Twitter Vk Yandex Mail.ru

Primus - Hello Skinnyconstantinople - бас-таба, видео

Печатать
Просмотров: 70
Includes the part to Constantinople, bonus track off Frizzle Fry.

Hello Skinny
G|------------------|
D|------------------|
A|-/6-6-6-6-7-7-7-7-|
E|----------0-0-0-0-|

Constantinople (both hands tapped)
G|-----------------------|
D|-----------------------|
A|-----------------------|
E|-14-13-14-8-14-13-14-8-|

Tapped while playing the above.
G|-21----22----23----24-----|
D|---20----21----22----23---|
A|-----19----20----21----22-|
E|--------------------------|

G|------------------|
D|------------------|
A|-1-1-1--1-1-x-1-1-| x2
E|------------------|

G|------------------|
D|------------------|
A|-4-4-4--4-4-x-4-4-| x1
E|------------------|

G|------------------|
D|------------------|
A|-1-1-1--1-1-x-1-1-| x1
E|------------------|
Добавлено: 08.02.2014
Другие материалы по этой песне:

Страница создана 09.04.2012
http://primanota.ru/primus/hello-skinnyconstantinople-chords.htm
Привет, Гость.
Предлагаем пройти революционный курс по гитаре.
Подарок от PrimaNota.Ru, забирай!