PrimaNota.ru - самый крупный в мире бесплатный архив песенных текстов, аккордов, табулатур и нот


Primus - Electric Uncle Sam - аккорды и текст, таба, бас-таба, видео

Регистрация Запомнить меня
Войти через:  Facebook Google Twitter Vk Yandex Mail.ru

Primus - Electric Uncle Sam - аккорды и текст, таба, бас-таба, видео

Печатать
Просмотров: 134
Уроки эстрадного вокала в Санкт-Петербурге
Electric Uncle Sam
Primus
Band:Primus
Song:Electric Uncle Sam
Tabbed by:Justin Bailey Tazz_tld@hotmail.com

This is the way how I play it.

Intro
E--------------------------------------------------------
B--------------------------------------------------------
G--------------------------------------------------------
D--7-7-5--7-7-5--7-7-5--7-7-5--7-7-5--7-7-5--7-7-5--7-7-5
A--7-7-5--7-7-5--7-7-5--7-7-5--7-7-5--7-7-5--7-7-5--7-7-5
D--7-7-5--7-7-5--7-7-5--7-7-5--7-7-5--7-7-5--7-7-5--7-7-5

Fig1(chorus)
E-------------------------------------------------
B-------------------------------------------------
G-------------------------------------------------
D--2-2-2-0-2---2-2-2-0-2---2-2-2-0-2---2-2-2-0-2--
A--2-2-2-0-2---2-2-2-0-2---2-2-2-0-2---2-2-2-0-2--
D--2-2-2-0-2---2-2-2-0-2---2-2-2-0-2---2-2-2-0-2--

Fig2
E-------------------------------------
B--------------12-------------------12
G--9-------12----------9--------12----

E--------------14-------------------14
B--12------15----------12-------15----
G-------------------------------------

Fig3
E-----------------------------------------------------------
B-----------------------------------------------------------
G-----------------------------------------------------------
D--2-2-0-2--5-5---2-2-0-2--5-5---2-2-0-2--5-5---2-2-0-2--5-5
A--2-2-0-2--5-5---2-2-0-2--5-5---2-2-0-2--5-5---2-2-0-2--5-5
D--2-2-0-2--5-5---2-2-0-2--5-5---2-2-0-2--5-5---2-2-0-2--5-5

Intro x 2
Fig1 x 2
Fig2 x 1
Fig1 x 2
Fig2 x 1
Fig1 x 2
Fig3 x 5

               PRIMUS SUCKS!!!!!!!!!
     
Добавлено: 07.10.2013
Другие материалы по этой песне:

Страница создана 06.06.2012
http://primanota.ru/primus/electric-uncle-sam-chords.htm
Привет, Гость.
Предлагаем пройти революционный курс по гитаре.
Подарок от PrimaNota.Ru, забирай!