PrimaNota.ru - самый крупный в мире бесплатный архив песенных текстов, аккордов, табулатур и нот


Primordial - To Enter Pagan - текст песни, таба, видео

Регистрация Запомнить меня
Войти через:  Facebook Google Twitter Vk Yandex Mail.ru

Primordial - To Enter Pagan - текст песни, таба, видео

Печатать
Просмотров: 83
-------------------------------------------------------------------------------
   PRIMORDIAL- TO ENTER PAGAN-from Dark Romanticism
-------------------------------------------------------------------------------
Tabbed by:Baldo Torbarina

YOUTUBE-NihilView

Tuning:E standard


e|---------------------------------------------------------------------------|
B|---------------------------------------------------------------------------|
G|---------------------------------------------------------------------------|INTRO AND THEME FIG.A
D|---6--6---7--9---7----6--6---6--6-------6--6---7--9---7---6--6-------------|
A|---7--7---8--10--8----7--7---7--7-------7--7---8--10--8---7--7---7---9-----|
E|-----------------------------8--8--------------------------------8---10----|

e|---------------------------------------------------------------------------|
B|---------------------------------------------------------------------------|
G|---------------------------------------------------------------------------| INTRO FIG.B
D|-----------------------------2-----4---------------------------------------|
A|---2--2--------------2--2----3-sl--5---------------------------------------|
E|---0--0--1---3---1---0--0--------------------------------------------------|


e|---------------------------------------------------------------------------|
B|---------------------------------------------------------------------------|
G|---5--5---6--5--3----5-5---1--3--------------------------------------------|VERSE
D|---7--7---8--7--5----7-7---3--5----------------------------7-9-------------|
A|---7--7---8--7--5----7-7---3--5---------3--3--5-3--2--3-3--8-10------------|
E|---5--5---6--5--3----5-5---1--3---------5--5--6-5--3--5-5------------------|


e|---------------------------------------------------------------------------|
B|---------------------------------------------------------------------------|FASTER TEMPO
G|---------------------------------------------------------------------------|CHORUS!
D|-----------------------7-7-7-7--6--4---------------------------------------|
A|---7-7-7-7--8-7--6-7---8-8-8-8--7--5---4-4-4-4--5-4--4-4-4--3--------------|
E|---5-5-5-5--5-5--5-5-------------------2-2-2-2--2-2--1-1-1--1--------------|


e|---------------------------------------------------------------------------|
B|---------------------------------------------------------------------------|BRIDGE
G|------------------------------------------------------------2--------------|(Slower doomy part)
D|---7--7--8---8-7---7-v-----7-7--8-sl--12--11------5-sl-8vv--2--------------|
A|------------------------0---------------------8-------------0--------------|
E|---------------------------------------------------------------------------|

   REPEAT: INTRO
           VERSE
           CHORUS
      

e|---------------------------------------------------------------------------|
B|---------------------------------------------------------------------------|
G|---------------------------------------------------------------------------|BREAKDOWN
D|--7--7-----3-3-3-3--4-4----------------------------------------------------|
A|--7--7-----3-3-3-3--4-4----------------------------------------------------|
E|--5--5-----1-1-1-1--2-2----------------------------------------------------|


e|---------------------------------------------------------------------------|
B|---------------------------------------------------------------------------|
G|----------------------------9--8-8---5-5--5-5--6------2--------------------| OUTRO FIGURE
D|---5--4-4--1-1----2-2---------------------------------2--------------------|
A|---7--6-6--3-3-sl-4-4-------7--6-6---3-3--3-3--4------0--------------------|
E|---------------------------------------------------------------------------|






************************************

| /   slide up
| \   slide down
| h   hammer-on
| p   pull-off
| ~   vibrato
| +   harmonic
| x   Mute note
| b   Bend
| pb  Pre-bend
| br  Bend release
| pbr Pre-bend release
| brb Bend release bend

************************************
Добавлено: 16.06.2016
Вам также может быть интересно:
Другие материалы по этой песне:
  • Аккорды и текст

Страница создана 10.04.2012
http://primanota.ru/primordial/to-enter-pagan-chords.htm
Привет, Гость.
Предлагаем пройти революционный курс по гитаре.
Подарок от PrimaNota.Ru, забирай!