PrimaNota.ru - самый крупный в мире бесплатный архив песенных текстов, аккордов, табулатур и нот


Primordial - Among The Lazarae - текст песни, таба, видео

Регистрация Запомнить меня
Войти через:  Facebook Google Twitter Vk Yandex Mail.ru

Primordial - Among The Lazarae - текст песни, таба, видео

Печатать
Просмотров: 80
Уроки эстрадного вокала в Санкт-Петербурге
-------------------------------------------------------------------------------
 PRIMORDIAL-"AMONG THE LAZARAE"-from the Burning Season EP 1999
-------------------------------------------------------------------------------
Tabbed by: Baldo Torbarina

YOUTUBE-NihilView

Tuning:E standard EADGBe


    PART A            PART B                   PART C
e|-----------------!-----------------------!-----------------------------------|
B|-----------------!-----------------------!-----------------------------------| INTRO PART A+B+C
G|-----------------!-----------------------!-----------------------------------|
D|-----------------!---5--5--6-------------!----------6-5----------------------|
A|-----------------!-------------7-6---3---!--2--2-3--4-3---6------------------|
E|--0--0---1-br----!-----------------------!--0--0-1--------4------------------|


e|---------------------------------------------------------------------------|
B|---------------------------------------------------------------------------|INTRO PART D
G|----------------------------------5----------------------------------------|
D|-------------6-5-----------------------7-----------------------------------|
A|-------4--------------------3----------------------------------------------|
E|---3--------------------2--------------------------------------------------|


e|---------------------------------------------------------------------------|FAST TEMPO
B|---------------------------------------------------------------------------|VERSE+CHORUS
G|--4-4-4--3-3-3-------------------------------------------------------------|
D|--4-4-4--3-3-3---4-4-4--5--4---3-3-3--4--3----------5-4-3----------4-3-2---|
A|--2-2-2--1-1-1---2-2-2--2--2---1-1-1--1--1----2-2-2-2-2-2----1-1-1-1-1-1---|
E|---------------------------------------------------------------------------|


e|---------------------------------------------------------------------------|
B|---------------------------------------------------------------------------|CHANGE TEMPO
G|---6----5-----6-7---4--------6----5-----6--7----4--------------------------|BREAKDOWN
D|---6----5-5---6-7---4--------6----5-5---6--7----4--------------------------|
A|---4----3-5---4-5---2--------4----3-5---4--5----2--------------------------|
E|----------3-------------------------3--------------------------------------|


e|---------------------------------------------------------------------------|
B|---------------------------------------------------------------------------|BRIDGE AND SOLO BACKGROUND
G|---6-6-6--6-6--------------------------------------------------------------|
D|---6-6-6--6-6-------------7-7-7--7-7---------------------------------------|
A|---4-4-4--4-4----7--5-----7-7-7--7-7----7--5-------------------------------|
E|-----------------8--6-----5-5-5--5-5----8--6-------------------------------|


e|------------------------------------------------------------------------------|
B|------------------------------------------------------------------------------|
G|---6-/-8--8-8--/-9--9-9--/--11--11-11--/-13--13-13-13--/-11--11-11-/-9-/-8-vv-|SOLO:
D|------------------------------------------------------------------------------|
A|------------------------------------------------------------------------------|
E|------------------------------------------------------------------------------|

e|--------------------------------------------------------------------------------------|
B|----------12-13---------------------12-13--13sl-15-15-15--13-12-13--12-vv--10-9-vv----|
G|--9-v-------------10-9-v------9-------------------------------------------------------|
D|--------------------------------------------------------------------------------------|
A|--------------------------------------------------------------------------------------|
E|--------------------------------------------------------------------------------------|

e|-----------------------------------------------------------------------------12tr13-----11tr12---|
B|---9-------------9---------------9h10-p9-h10------9----------------12tr13------------------------|
G|------10-9-10--------10-9-10------------------10------10-9-10------------------------------------|
D|-------------------------------------------------------------------------------------------------|
A|-------------------------------------------------------------------------------------------------|
E|-------------------------------------------------------------------------------------------------|


e!----------------------------------------------------------------------------------------!
B!----------------------------------------------------------------------------------------!
G!-----------------------------------------------------------------------5----------------! OUTRO!
D!--6-6-6--7-7--6-----5-5-5--6-6--5------------------6-5----------------------7-----------!
A!--4-4-4--4-4--4-----3-3-3--3-3--3------------4--------------------3---------------------!
E!--4-4-4--4-4--4-----3-3-3--3-3--3-------3---------------------2-------------------------!


THATS ALL! LISTEN NUMBER FOR TIMING, AND ENJOY IN THIS DOOMY BLACK METAL SONG


************************************

| /   slide up
| \   slide down
| h   hammer-on
| p   pull-off
| v   vibrato
| tr  trill
| x   Mute note
| b   Bend
| pb  Pre-bend
| br  Bend release
| pbr Pre-bend release
| brb Bend release bend

************************************
Добавлено: 16.06.2016
Другие материалы по этой песне:
  • Аккорды и текст

Страница создана 01.08.2013
http://primanota.ru/primordial/among-the-lazarae-chords.htm
Привет, Гость.
Предлагаем пройти революционный курс по гитаре.
Подарок от PrimaNota.Ru, забирай!