PrimaNota.ru - самый крупный в мире бесплатный архив песенных текстов, аккордов, табулатур и нот


Primer 55 - Texas - текст песни, таба, видео

Регистрация Запомнить меня
Войти через:  Facebook Google Twitter Vk Yandex Mail.ru

Primer 55 - Texas - текст песни, таба, видео

Печатать
Просмотров: 114
Song: Texas
Band: Primer 55

Tuning(from low to high): C G C F A D(drop-d, then tuned down a whole step)

Intro/Verse Riff:
D|--9-x-9-x-9-x-9-x-9-9-9-----9-x-9-x-9-x-9-x-9-9-9-----9-x-9-x-9-x-9-x-9-9-9----9-x-9-x-9-9/8----|
A|--9-x-9-x-9-x-9-x-9-9-9-----9-x-9-x-9-x-9-x-9-9-9-----9-x-9-x-9-x-9-x-9-9-9----9-x-9-x-9-9/8----|
F|--9-x-9-x-9-x-9-x-9-9-9-----9-x-9-x-9-x-9-x-9-9-9-----9-x-9-x-9-x-9-x-9-9-9----9-x-9-x-9-9/8----|
C|------------------------------------------------------------------------------------------------|
G|------------------------------------------------------------------------------------------------|
C|------------------------------------------------------------------------------------------------|

Chorus Riff:
|---------------------|
|---------------------|
|---------------------|
|--3--5--0------------|
|--3--5--0------------|
|--3--5--0------------|

Solo/Bridge:
|-----------------------------------------------------------------------------|
|-----------------------------------------------------------------------------|
|-----------------------------------------------------------------------------|
|--0--2---------------------------------------------------2p0---0-0-0--4p0----|
|--0--2---------------------------------------------------2p0---0-0-0--4p0----|
|--0--2---0-0-2p0---0-0-0-2p0--0-0-0-4p0---0-0-0-2p0------2p0---0-0-0--4p0----|
                                                        Continue this, and then shift
                                                        back to the the up-tempo chorus riff

Uptempo Chorus Riff:

|-------------------------------------------|
|-------------------------------------------|
|-------------------------------------------|
|-12-12-15-17----------12/3/12--------------|
|-12-12-15-17--repeat--12/3/12--------------|
|-12-12-15-17----------12/3/12--------------|

This probably isn't correct, but it sounds it. Not bad for a first attempt at tabbing.
Добавлено: 14.12.2015
Другие материалы по этой песне:
  • Аккорды и текст

Страница создана 12.06.2012
http://primanota.ru/primer-55/texas-chords.htm
Привет, Гость.
Предлагаем пройти революционный курс по гитаре.
Подарок от PrimaNota.Ru, забирай!