PrimaNota.ru - самый крупный в мире бесплатный архив песенных текстов, аккордов, табулатур и нот


Primer 55 - Loose - аккорды и текст, таба, бас-таба, видео

Регистрация Запомнить меня
Войти через:  Facebook Google Twitter Vk Yandex Mail.ru

Primer 55 - Loose - аккорды и текст, таба, бас-таба, видео

Печатать
Просмотров: 233
Уроки эстрадного вокала в Санкт-Петербурге
Loose
Primer 55
"Loose" - Primer 55
 From the album "Introduction to Mayhem"
Tabbed by Tim Millard (millartj@wilkes1.wilkes.edu)
Drop D tuning down a half step (Db Ab Db Gb Bb Eb)

Listen to CD for timings, repeat as needed, you know what I'm talking about...

Key:

~ = let ring

Intro:

Eb ---------------------------------------------
Bb ---------------------------------------------
Gb ---------------------------------------------
Db ---------------------------------------------
Ab ---------------------------------------------
Db -3-2-0-0-2-1-0-0-2-1-0-3-2-0-0-2-1-0-0-2-1-0-

Chorus:

Eb ---------------------------------------------
Bb ---------------------------------------------
Gb ---------------------------------------------
Db -3-2-0-0-2-1-0-0-2-1-0-3-2-0-0-2-1-0-0-2-1-0-
Ab -3-2-0-0-2-1-0-0-2-1-0-3-2-0-0-2-1-0-0-2-1-0-
Db -3-2-0-0-2-1-0-0-2-1-0-3-2-0-0-2-1-0-0-2-1-0-

Verse:

I don't know if this is a guitar playing this or not, as it's rather 
faint...but this is the best I could pull from it, sounds OK to me...

Eb ----15-16---11-------15-16--11-------15-16---11-------15-16---11-
Bb ------------11--------------11---------------11---------------11-
Gb -15---------11----15--------11----15---------11----15---------11-
Db -----------------------------------------------------------------
Ab -----------------------------------------------------------------
Db -----------------------------------------------------------------

Break:

It sounds like there's a delay on the F chord, so if you don't have one, 
play the F chord about three or four times in a mimickin-a-delay-like 
fashion (if that didn't confuse ya, what will)...

Eb --------------------------------------------------------
Bb --------------------------------------------------------
Gb --------10~~----------10~~----------10~~----------10~~--
Db -0~~----X------0~~----X------0~~----X------0~~----X-----
Ab -0~~----8~~----0~~----8~~----0~~----8~~----0~~----8~~---
Db -0~~-----------0~~-----------0~~-----------0~~----------


     
Добавлено: 05.09.2013
Другие материалы по этой песне:
  • Аккорды и текст

Страница создана 13.04.2012
http://primanota.ru/primer-55/loose-chords.htm
Привет, Гость.
Предлагаем пройти революционный курс по гитаре.
Подарок от PrimaNota.Ru, забирай!