PrimaNota.ru - самый крупный в мире бесплатный архив песенных текстов, аккордов, табулатур и нот


Primer 55 - Growing - текст песни, таба, видео

Регистрация Запомнить меня
Войти через:  Facebook Google Twitter Vk Yandex Mail.ru

Primer 55 - Growing - текст песни, таба, видео

Печатать
Просмотров: 63
Transcription to "Growing" by Primer 55
From their album "(the) New Release

Tuning for this song is Drop B Tuned
B F# B E G# C#

Bass line

C#---------------------------------|
G#---------------------------------|
E ---------------------------------|
B ---------------------------------|
F#---------------------------------|
B -0-0-0-0-12---9-9-9-9-8-8-8------|

Verse

C#----------------------------------|
G#----------------------------------|
E --7-7-7-7-7-7-7-7-7-9-9-9-9-8-8-8-|
B --6-6-6-6-6-6-6-6-6-8-8-8-8-7-7-7-|
F#--5-5-5-5-5-5-5-5-5-7-7-7-7-6-6-6-|
B ----------------------------------|

Chrous

C#---------------------------------|
G#---------------------------------|
E ---------------------------------|
B --7-5-7-12-7-5-7-5-7-12----------|
F#--7-5-7-12-7-5-7-5-7-12----------|
B --7-5-7-12-7-5-7-5-7-12----------|

Only other part (bridge?)

C#---------------------------------|
G#---------------------------------|
E ---------------------------------|
B --0-0-0-0------------------------|
F#--0-0-0-0------------------------|
B --0-0-0-0------------------------|
Добавлено: 30.04.2016
Другие материалы по этой песне:
  • Аккорды и текст

Страница создана 16.07.2012
http://primanota.ru/primer-55/growing-chords.htm
Привет, Гость.
Предлагаем пройти революционный курс по гитаре.
Подарок от PrimaNota.Ru, забирай!