PrimaNota.ru - самый крупный в мире бесплатный архив песенных текстов, аккордов, табулатур и нот


Primal Scream - Trainspotting - таба, видео

Регистрация Запомнить меня
Войти через:  Facebook Google Twitter Vk Yandex Mail.ru

Primal Scream - Trainspotting - таба, видео

Печатать
Просмотров: 126
Уроки эстрадного вокала в Санкт-Петербурге
Авторы музыки: Martin Duffy, Andrew Innes, Bobby Gillespie, Robert Young

PRIMAL SCREAM
TRAINSPOTTING

FROM THE 'TRAINSPOTTING' SOUNDTRACK


TABBED BY STEPHEN CONSTANTINE (STEVECONST@HOTMAIL.COM)
THIS TAB IS ALL MY OWN WORK


One of the coolest songs of all time, and I couldn't
find a tab anywhere!

G I decided to have a crack:

E--6S8-8S10-6s8--11s13-13s15-11s13--
B-----------------------------------
G-----------------------------------
D-----------------------------------
A-----------------------------------
E-----------------------------------


Slightly arpeggio'd:

Gm
Fm


------------------------
------------------------
-----12-11-10----8b-----
--10----------10----10--
------------------------
------------------------

------------------------
-----13-12-11----9b-----
--10----------10----10--
------------------------
------------------------
------------------------


The bass goes something like:


G--------
D-----1--
A-3-3----
E--------


And thats it! Enjoy!
     
Добавлено: 10.10.2013
Другие материалы по этой песне:
  • Аккорды и текст

Страница создана 10.10.2013
http://primanota.ru/primal-scream/trainspotting-chords.htm
Привет, Гость.
Предлагаем пройти революционный курс по гитаре.
Подарок от PrimaNota.Ru, забирай!