PrimaNota.ru - самый крупный в мире бесплатный архив песенных текстов, аккордов, табулатур и нот


Primal Rock Rebellion - No Place Like Home - таба, бас-таба, драм-таба, видео

Регистрация Запомнить меня
Войти через:  Facebook Google Twitter Vk Yandex Mail.ru

Primal Rock Rebellion - No Place Like Home - таба, бас-таба, драм-таба, видео

Печатать
Просмотров: 47
                              No Place Like Home                                


                             Primal Rock Rebellion


Instruments:
- G #1
- G #2
- G #3
- Voice Melody
- Chorus


"Drop D Tuning"


Guitar #1:

Adrian Smith


           Intro                                     
                         PM PM PM PM PM PM PM PM PM  
     S     S     E.      E  E  E  S  E  E  E  S  E   
E||----|--------------|-----------------------------|
B||----|--------------|-----------------------------|
G||----|--------------|-----------------------------|
D||----|--------------|-----------------------------|
A||----|--10----12\---|-----------------------------|
D||----|--10----12\---|--0--0--0--0--0--0--0--0--0--|


  PM PM PM PM PM PM                PM PM PM PM PM PM PM PM PM  
  E  E  S  E  E  S  S S S S E      E  E  E  S  E  E  E  S  E   
--------------------------------|-----------------------------|
--------------------------------|-----------------------------|
--------------------------------|-----------------------------|
--------------------------------|-----------------------------|
------------------------5-5-5~--|-----------------------------|
--0--0--0--0--0--0--5-7---------|--0--0--0--0--0--0--0--0--0--|


                                   Main Riff                          
  PM PM PM PM PM PM                PM        PM PM PM PM PM PM PM PM  
  E  E  S  E  E  S  S S S S E      E         E  E  S  E  E  E  S  E   
--------------------------------|------------------------------------|
--------------------------------|------------------------------------|
--------------------------------|------------------------------------|
--------------------------------|------------------------------------|
------------------------5-5-5~--|------------------------------------|
--0--0--0--0--0--0--5-7---------|--0---------0--0--0--0--0--0--0--0--|


  PM PM PM PM PM                 PM PM PM PM PM PM PM PM PM  
  E  E  S  E  E.  S S S S E      E  E  E  S  E  E  E  S  E   
------------------------------|-----------------------------|
------------------------------|-----------------------------|
------------------------------|-----------------------------|
------------------------------|-----------------------------|
----------------------5-5-5~--|-----------------------------|
--0--0--0--0--0---5-7---------|--0--0--0--0--0--0--0--0--0--|


                             Verso                          
                             PM    PM PM PM PM PM PM PM PM  
  E  E  E  E  E  E  E  E     E     E  E  S  E  E  E  S  E   
--------------------------|--------------------------------|
--------------------------|--------------------------------|
--------------------------|--------------------------------|
--------------3--x--5--x--|--------------------------------|
--3--x--5--x--1--x--3--x--|--------------------------------|
--3--x--5--x--------------|--0-----0--0--0--0--0--0--0--0--|


  PM PM PM PM PM                 PM PM PM PM PM PM PM PM PM  
  E  E  S  E  E.  S S S S E      E  E  E  S  E  E  E  S  E   
------------------------------|-----------------------------|
------------------------------|-----------------------------|
------------------------------|-----------------------------|
------------------------------|-----------------------------|
----------------------5-5-5~--|-----------------------------|
--0--0--0--0--0---5-7---------|--0--0--0--0--0--0--0--0--0--|


                             PM PM PM PM PM PM PM PM PM  
  E  E  E  E  E  E  E  E     E  E  E  S  E  E  E  S  E   
--------------------------|-----------------------------|
--------------------------|-----------------------------|
--------------------------|-----------------------------|
--------------3--x--5--x--|-----------------------------|
--3--x--5--x--1--x--3--x--|-----------------------------|
--3--x--5--x--------------|--0--0--0--0--0--0--0--0--0--|


  PM PM PM PM PM                 PM PM PM PM PM PM PM PM PM  
  E  E  S  E  E.  S S S S E      E  E  E  S  E  E  E  S  E   
------------------------------|-----------------------------|
------------------------------|-----------------------------|
------------------------------|-----------------------------|
------------------------------|-----------------------------|
----------------------5-5-5~--|-----------------------------|
--0--0--0--0--0---5-7---------|--0--0--0--0--0--0--0--0--0--|


                             Coro A                    
                                       ^ v      ^      
  E  E  E  E  E  E  E  E     Q      E  S S Q    E  E   
--------------------------|---------------------------|
--------------------------|---------------------------|
--------------------------|---------------------------|
--------------3--x--5--x--|--7------7--x-x-7----x--3--|
--3--x--5--x--1--x--3--x--|--5------5--x-x-5----x--1--|
--3--x--5--x--------------|---------------------------|


          ^ v      ^                ^ v      ^                                
  Q    E  S S Q    E  E     Q    E  S S Q    E  E     E  E  E  E  E.  E.  E   
-------------------------|-------------------------|-------------------------|
-------------------------|-------------------------|-------------------------|
-------------------------|-------------------------|-------------------------|
--L----3--x-x-3----x--5--|--L----5--x-x-5----x--7--|--L-------------------7--|
--L----1--x-x-1----x--3--|--L----3--x-x-3----x--5--|--L--3--5--6--5---3---5--|
-------------------------|-------------------------|-----3--5--6--5---3---0--|


          ^ v      ^                ^ v      ^                ^ v      ^      
  Q    E  S S Q    E  E     Q    E  S S Q    E  E     Q    E  S S Q    E  E   
-------------------------|-------------------------|-------------------------|
-------------------------|-------------------------|-------------------------|
-------------------------|-------------------------|-------------------------|
--L----7--x-x-7----x--3--|--L----3--x-x-3----x--5--|--L----5--x-x-5----x--7--|
--L----5--x-x-5----x--1--|--L----1--x-x-1----x--3--|--L----3--x-x-3----x--5--|
--L----------------------|-------------------------|-------------------------|


                               Fill                              
  E  E  E  E  E.  E.   E       H         S  S  S  S  S  S  S  S  
---------------------------|------------------------------------|
----------------------15~--|---L--------15----------------------|
---------------------------|---------------17-14----17-14----14-|
--L------------------------|---------------------17-------17----|
--L--3--5--6--5---3--------|------------------------------------|
-----3--5--6--5---3--------|------------------------------------|


   S  S  S  S  S  S  S  S  S  S  S  S  S  S  E    
-------------------------------------------------|
-------------------------------------------------|
-----------14------------------------------------|
--17-15-17----17-15----15----15----15-17-15------|
--------------------17----17----17----------17~--|
-------------------------------------------------|


  Verso                                                         
  PM    PM PM PM PM PM PM PM PM    PM PM PM PM PM               
  E     E  E  S  E  E  E  S  E     E  E  S  E  E.  S S S S E    
--------------------------------|------------------------------|
--------------------------------|------------------------------|
--------------------------------|------------------------------|
--------------------------------|------------------------------|
--------------------------------|----------------------5-5-5~--|
--0-----0--0--0--0--0--0--0--0--|--0--0--0--0--0---5-7---------|


  PM PM PM PM PM PM PM PM PM                             
  E  E  E  S  E  E  E  S  E     E  E  E  E  E  E  E  E   
-----------------------------|--------------------------|
-----------------------------|--------------------------|
-----------------------------|--------------------------|
-----------------------------|--------------3--x--5--x--|
-----------------------------|--3--x--5--x--1--x--3--x--|
--0--0--0--0--0--0--0--0--0--|--3--x--5--x--------------|


  PM PM PM PM PM PM PM PM PM    PM PM PM PM PM               
  E  E  E  S  E  E  E  S  E     E  E  S  E  E.  S S S S E    
-----------------------------|------------------------------|
-----------------------------|------------------------------|
-----------------------------|------------------------------|
-----------------------------|------------------------------|
-----------------------------|----------------------5-5-5~--|
--0--0--0--0--0--0--0--0--0--|--0--0--0--0--0---5-7---------|


  PM PM PM PM PM PM PM PM PM                             
  E  E  E  S  E  E  E  S  E     E  E  E  E  E  E  E  E   
-----------------------------|--------------------------|
-----------------------------|--------------------------|
-----------------------------|--------------------------|
-----------------------------|--------------3--x--5--x--|
-----------------------------|--3--x--5--x--1--x--3--x--|
--0--0--0--0--0--0--0--0--0--|--3--x--5--x--------------|


  Coro A                                                                        
            ^ v      ^                ^ v      ^                ^ v      ^      
  Q      E  S S Q    E  E     Q    E  S S Q    E  E     Q    E  S S Q    E  E   
---------------------------|-------------------------|-------------------------|
---------------------------|-------------------------|-------------------------|
---------------------------|-------------------------|-------------------------|
--7------7--x-x-7----x--3--|--L----3--x-x-3----x--5--|--L----5--x-x-5----x--7--|
--5------5--x-x-5----x--1--|--L----1--x-x-1----x--3--|--L----3--x-x-3----x--5--|
---------------------------|-------------------------|-------------------------|


                                    ^ v      ^                ^ v      ^      
  E  E  E  E  E.  E.  E     Q    E  S S Q    E  E     Q    E  S S Q    E  E   
-------------------------|-------------------------|-------------------------|
-------------------------|-------------------------|-------------------------|
-------------------------|-------------------------|-------------------------|
--L-------------------7--|--L----7--x-x-7----x--3--|--L----3--x-x-3----x--5--|
--L--3--5--6--5---3---5--|--L----5--x-x-5----x--1--|--L----1--x-x-1----x--3--|
-----3--5--6--5---3---0--|--L----------------------|-------------------------|


                                                      Coro B                    
          ^ v      ^                                            ^ v      ^      
  Q    E  S S Q    E  E     E  E  E  E  E.  E.  E     Q      E  S S Q    E  E   
-------------------------|-------------------------|---------------------------|
-------------------------|-------------------------|---------------------------|
-------------------------|-------------------------|---------------------------|
--L----5--x-x-5----x--7--|--L-------------------7--|--L------7--x-x-7----x--3--|
--L----3--x-x-3----x--5--|--L--3--5--6--5---3---5--|--L------5--x-x-5----x--1--|
-------------------------|-----3--5--6--5---3---0--|--L------------------------|


          ^ v      ^                ^ v      ^                                
  Q    E  S S Q    E  E     Q    E  S S Q    E  E     E  E  E  E  E.  E.  E   
-------------------------|-------------------------|-------------------------|
-------------------------|-------------------------|-------------------------|
-------------------------|-------------------------|-------------------------|
--L----3--x-x-3----x--5--|--L----5--x-x-5----x--7--|--L-------------------7--|
--L----1--x-x-1----x--3--|--L----3--x-x-3----x--5--|--L--3--5--6--5---3---5--|
-------------------------|-------------------------|-----3--5--6--5---3---0--|


          ^ v      ^                ^ v      ^                ^ v      ^      
  Q    E  S S Q    E  E     Q    E  S S Q    E  E     Q    E  S S Q    E  E   
-------------------------|-------------------------|-------------------------|
-------------------------|-------------------------|-------------------------|
-------------------------|-------------------------|-------------------------|
--L----7--x-x-7----x--3--|--L----3--x-x-3----x--5--|--L----5--x-x-5----x--7--|
--L----5--x-x-5----x--1--|--L----1--x-x-1----x--3--|--L----3--x-x-3----x--5--|
--L----------------------|-------------------------|-------------------------|


                            Break                         
                            PM    PM PM PM PM PM PM       
  E  E  E  E  E.  E.  E     E     E  E  S  E  S  E  Q     
-------------------------|-------------------------------|
-------------------------|-------------------------------|
-------------------------|-------------------------------|
--L----------------------|-------------------------------|
--L--3--5--6--5---3---0--|--5-----5--5--5--5--5--5-------|
-----3--5--6--5---3---0--|--0-----0--0--0--0--0--0-------|


  PM PM PM PM PM PM PM PM         PM PM PM PM PM PM PM       
  S  E  S  E  S  E  S  E  Q       E  E  E  S  E  S  E  Q     
-------------------------------|----------------------------|
-------------------------------|----------------------------|
-------------------------------|----------------------------|
-------------------------------|----------------------------|
--5--5--5--5--5--5--5--5-------|--5--5--5--5--5--5--5-------|
--0--0--0--0--0--0--0--0-------|--0--0--0--0--0--0--0-------|


                                  Puente                     
  PM PM PM PM PM PM PM PM                                    
  S  E  S  E  S  E  S  E  Q       H           E   E    Q     
-------------------------------|----------------------------|
-------------------------------|-----------3g15---L~---L----|
-------------------------------|----------------------------|
--------------------------3----|----------------------------|
--5--5--5--5--5--5--5--5--1----|----------------------------|
--0--0--0--0--0--0--0--0-------|----------------------------|


   E.   E.   E     E   E    Q        E.   E.   E     E   E    Q     
---------------------------------|---------------------------------|
---L----L\------6g18---L~---L----|---L----L\------8g20---L~---L----|
---------------------------------|---------------------------------|
---------------------------------|---------------------------------|
---------------------------------|---------------------------------|
---------------------------------|---------------------------------|


                                       Solo Adrian Smith                  
   E.   E.   E      E   E    Q         Q.                S  S  H          
-----------------------------------|-------------------------------------|
---L----L\------10g22---L~---Lb----|-------------------------------------|
-----------------------------------|--12br--------------12-10------------|
-----------------------------------|--------------------------12~--------|
-----------------------------------|-------------------------------------|
-----------------------------------|-------------------------------------|


   S  S  S  S  S  S  S  S  S  S  S  S  Q      
---------------------------------------------|
---------------------------------------------|
--17-14-12-14-12----12-----------------------|
-----------------15----15-12-15-12-----------|
-----------------------------------15-12~----|
---------------------------------------------|


   |---3---|   |---3---|   |---3---|   |---3---|   
   E   E   E   E   E   E   E   E   E   E   E   E   
--------------------------------------------------|
--------------------------------------------------|
------------------------------------------12--14--|
----------------------12--14--12--14--15----------|
--12--13--12--13--15------------------------------|
--------------------------------------------------|


                           W          W   W   
   |---3---|   |---3---|                      
   E   E   E   E   E   E   E   S   S  E   E   
---------------------------------------------|
---------------------------------------------|
--15--14--15--17--15--17--19--17p-15-19--19--|
---------------------------------------------|
---------------------------------------------|
---------------------------------------------|


          SH              SH       
  Q       Q      E   S    Q     S  
----------------------------------|
-------<>18b-----L---L-<>18~------|
----------------------------------|
----------------------------------|
----------------------------------|
----------------------------------|


   S  S  S  S  S  S  S  S  S  S  S  S  S  S  S  S  
--------------------------------------------------|
--22-18-15----18-15----------15-------------------|
-----------17-------17-14-17----17-14-17-14-12-14-|
--------------------------------------------------|
--------------------------------------------------|
--------------------------------------------------|


                        SH                                               
                                      |---3---|   |---3---|              
   S  S  S  S  Q        H             E   E   E   E   E   E   H          
----------------------------------|-------------------------------------|
---------------------<>15~--------|--15--17--18--15--17--18--18b--------|
--12-14-12------------------------|-------------------------------------|
-----------15-12~-----------------|-------------------------------------|
----------------------------------|-------------------------------------|
----------------------------------|-------------------------------------|


  Coro A                                                                        
            ^ v      ^                ^ v      ^                ^ v      ^      
  Q      E  S S Q    E  E     Q    E  S S Q    E  E     Q    E  S S Q    E  E   
---------------------------|-------------------------|-------------------------|
---------------------------|-------------------------|-------------------------|
---------------------------|-------------------------|-------------------------|
--7------7--x-x-7----x--3--|--L----3--x-x-3----x--5--|--L----5--x-x-5----x--7--|
--5------5--x-x-5----x--1--|--L----1--x-x-1----x--3--|--L----3--x-x-3----x--5--|
---------------------------|-------------------------|-------------------------|


                                    ^ v      ^                ^ v      ^      
  E  E  E  E  E.  E.  E     Q    E  S S Q    E  E     Q    E  S S Q    E  E   
-------------------------|-------------------------|-------------------------|
-------------------------|-------------------------|-------------------------|
-------------------------|-------------------------|-------------------------|
--L-------------------7--|--L----7--x-x-7----x--3--|--L----3--x-x-3----x--5--|
--L--3--5--6--5---3---5--|--L----5--x-x-5----x--1--|--L----1--x-x-1----x--3--|
-----3--5--6--5---3---0--|--L----------------------|-------------------------|


                                                      Coro B                    
          ^ v      ^                                            ^ v      ^      
  Q    E  S S Q    E  E     E  E  E  E  E.  E.  E     Q      E  S S Q    E  E   
-------------------------|-------------------------|---------------------------|
-------------------------|-------------------------|---------------------------|
-------------------------|-------------------------|---------------------------|
--L----5--x-x-5----x--7--|--L-------------------7--|--L------7--x-x-7----x--3--|
--L----3--x-x-3----x--5--|--L--3--5--6--5---3---5--|--L------5--x-x-5----x--1--|
-------------------------|-----3--5--6--5---3---0--|--L------------------------|


          ^ v      ^                ^ v      ^                                
  Q    E  S S Q    E  E     Q    E  S S Q    E  E     E  E  E  E  E.  E.  E   
-------------------------|-------------------------|-------------------------|
-------------------------|-------------------------|-------------------------|
-------------------------|-------------------------|-------------------------|
--L----3--x-x-3----x--5--|--L----5--x-x-5----x--7--|--L-------------------7--|
--L----1--x-x-1----x--3--|--L----3--x-x-3----x--5--|--L--3--5--6--5---3---5--|
-------------------------|-------------------------|-----3--5--6--5---3---0--|


          ^ v      ^                ^ v      ^                ^ v      ^      
  Q    E  S S Q    E  E     Q    E  S S Q    E  E     Q    E  S S Q    E  E   
-------------------------|-------------------------|-------------------------|
-------------------------|-------------------------|-------------------------|
-------------------------|-------------------------|-------------------------|
--L----7--x-x-7----x--3--|--L----3--x-x-3----x--5--|--L----5--x-x-5----x--7--|
--L----5--x-x-5----x--1--|--L----1--x-x-1----x--3--|--L----3--x-x-3----x--5--|
--L----------------------|-------------------------|-------------------------|


                            Outro Coro                    
                                          ^ v      ^      
  E  E  E  E  E.  E.  E     Q          E  S S Q    E  E   
-------------------------|-------------------------------|
-------------------------|-------------------------------|
-------------------------|-------------------------------|
--L-------------------7--|--L----------7--x-x-7----x--3--|
--L--3--5--6--5---3---5--|--L----------5--x-x-5----x--1--|
-----3--5--6--5---3---0--|--L----------------------------|


          ^ v      ^                ^ v      ^                                
  Q    E  S S Q    E  E     Q    E  S S Q    E  E     E  E  E  E  E.  E.  E   
-------------------------|-------------------------|-------------------------|
-------------------------|-------------------------|-------------------------|
-------------------------|-------------------------|-------------------------|
--L----3--x-x-3----x--5--|--L----5--x-x-5----x--7--|--L-------------------7--|
--L----1--x-x-1----x--3--|--L----3--x-x-3----x--5--|--L--3--5--6--5---3---5--|
-------------------------|-------------------------|-----3--5--6--5---3---0--|


          ^ v      ^                ^ v      ^                ^ v      ^      
  Q    E  S S Q    E  E     Q    E  S S Q    E  E     Q    E  S S Q    E  E   
-------------------------|-------------------------|-------------------------|
-------------------------|-------------------------|-------------------------|
-------------------------|-------------------------|-------------------------|
--L----7--x-x-7----x--3--|--L----3--x-x-3----x--5--|--L----5--x-x-5----x--7--|
--L----5--x-x-5----x--1--|--L----1--x-x-1----x--3--|--L----3--x-x-3----x--5--|
--L----------------------|-------------------------|-------------------------|


  E  E  E  E  E.  E.  Q    E    
------------------------------||
------------------------------||
------------------------------||
--L---------------------------||
--L--3--5--6--5---3---0-------||
-----3--5--6--5---3---0-------||




Guitar #2:
                      
Adrian Smith


          Intro                                              
     S    Q        W                   H.           S  E.    
E||----|--------|-------------------|-----------------------|
B||----|--------|-------------------|-----------------------|
G||----|--------|-------------------|-----------------------|
D||----|--------|-------------------|-----------------------|
A||----|--------|-------------------|------------------x\---|
D||----|--------|-------------------|------------------x\---|


  PM PM PM PM PM PM PM PM PM    PM PM PM PM PM PM              
  E  E  E  S  E  E  E  S  E     E  E  S  E  E  S  S S S S E    
-----------------------------|--------------------------------|
-----------------------------|--------------------------------|
-----------------------------|--------------------------------|
-----------------------------|--------------------------------|
-----------------------------|------------------------5-5-5~--|
--0--0--0--0--0--0--0--0--0--|--0--0--0--0--0--0--5-7---------|


  Main Riff                                                           
  PM        PM PM PM PM PM PM PM PM    PM PM PM PM PM PM              
  E         E  E  S  E  E  E  S  E     E  E  S  E  E  S  S S S S E    
------------------------------------|--------------------------------|
------------------------------------|--------------------------------|
------------------------------------|--------------------------------|
------------------------------------|--------------------------------|
--0---------0--0--0--0--0--0--0--0--|--0--0--0--0--0---------5-5-5~--|
--0---------0--0--0--0--0--0--0--0--|--0--0--0--0--0--0--5-7---------|


  PM PM PM PM PM PM PM PM PM                             
  E  E  E  S  E  E  E  S  E     E  E  E  E  E  E  E  E   
-----------------------------|--------------------------|
-----------------------------|--------------------------|
-----------------------------|--------------------------|
-----------------------------|--------------3--3--5--5--|
--0--0--0--0--0--0--0--0--0--|--3--3--5--5--1--1--3--3--|
--0--0--0--0--0--0--0--0--0--|--3--3--5--5--------------|


  Verso                                                           
  PM    PM PM PM PM PM PM PM PM    PM PM PM PM PM PM              
  E     E  E  S  E  E  E  S  E     E  E  S  E  E  S  S S S S E    
--------------------------------|--------------------------------|
--------------------------------|--------------------------------|
--------------------------------|--------------------------------|
--------------------------------|--------------------------------|
--0-----0--0--0--0--0--0--0--0--|--0--0--0--0--0---------5-5-5~--|
--0-----0--0--0--0--0--0--0--0--|--0--0--0--0--0--0--5-7---------|


  PM PM PM PM PM PM PM PM PM                             
  E  E  E  S  E  E  E  S  E     E  E  E  E  E  E  E  E   
-----------------------------|--------------------------|
-----------------------------|--------------------------|
-----------------------------|--------------------------|
-----------------------------|--------------3--3--5--5--|
--0--0--0--0--0--0--0--0--0--|--3--3--5--5--1--1--3--3--|
--0--0--0--0--0--0--0--0--0--|--3--3--5--5--------------|


  PM PM PM PM PM PM PM PM PM    PM PM PM PM PM PM              
  E  E  E  S  E  E  E  S  E     E  E  S  E  E  S  S S S S E    
-----------------------------|--------------------------------|
-----------------------------|--------------------------------|
-----------------------------|--------------------------------|
-----------------------------|--------------------------------|
--0--0--0--0--0--0--0--0--0--|--0--0--0--0--0---------5-5-5~--|
--0--0--0--0--0--0--0--0--0--|--0--0--0--0--0--0--5-7---------|


  PM PM PM PM PM PM PM PM PM                             
  E  E  E  S  E  E  E  S  E     E  E  E  E  E  E  E  E   
-----------------------------|--------------------------|
-----------------------------|--------------------------|
-----------------------------|--------------------------|
-----------------------------|--------------3--3--5--5--|
--0--0--0--0--0--0--0--0--0--|--3--3--5--5--1--1--3--3--|
--0--0--0--0--0--0--0--0--0--|--3--3--5--5--------------|


  Coro A                                                
            ^ v      ^ v               ^ v      ^ v     
  Q      E  S S Q    S S E     Q    E  S S Q    S S E   
----------------------------|--------------------------|
----------------------------|--------------------------|
--7------7--x-x-7----x-x-3--|--L----3--x-x-3----x-x-5--|
--7------7--x-x-7----x-x-3--|--L----3--x-x-3----x-x-5--|
--5------5--x-x-5----x-x-1--|--L----1--x-x-1----x-x-3--|
----------------------------|--------------------------|


          ^ v      ^ v                                         ^ v      ^ v     
  Q    E  S S Q    S S E     E  E  E  E  E.  E.  E     Q    E  S S Q    S S E   
--------------------------|-------------------------|--------------------------|
--------------------------|-------------------------|--------------------------|
--L----5--x-x-5----x-x-7--|--L-------------------7--|--L----7--x-x-7----x-x-3--|
--L----5--x-x-5----x-x-7--|--L-------------------7--|--L----7--x-x-7----x-x-3--|
--L----3--x-x-3----x-x-5--|--L--3--5--6--5---3---5--|--L----5--x-x-5----x-x-1--|
--------------------------|-----3--5--6--5---3------|--------------------------|


          ^ v      ^ v               ^ v      ^ v                               
  Q    E  S S Q    S S E     Q    E  S S Q    S S E     E  E  E  E  E.  E.  E   
--------------------------|--------------------------|-------------------------|
--------------------------|--------------------------|-------------------------|
--L----3--x-x-3----x-x-5--|--L----5--x-x-5----x-x-7--|--L----------------------|
--L----3--x-x-3----x-x-5--|--L----5--x-x-5----x-x-7--|--L----------------------|
--L----1--x-x-1----x-x-3--|--L----3--x-x-3----x-x-5--|--L--3--5--6--5---3---0--|
--------------------------|--------------------------|-----3--5--6--5---3---0--|


  Fill                                                        
  PM   PM PM PM PM PM PM PM PM    PM PM PM PM PM PM PM PM PM  
  E    E  E  S  E  E  E  S  E     E  E  S  E  E  E  S  E  E   
-------------------------------|-----------------------------|
-------------------------------|-----------------------------|
-------------------------------|-----------------------------|
-------------------------------|-----------------------------|
--0----0--0--0--0--0--0--0--0--|--0--0--0--0--0--5--5--5--5--|
--0----0--0--0--0--0--0--0--0--|--0--0--0--0--0--0--0--0--0--|


  Verso                                                           
  PM    PM PM PM PM PM PM PM PM    PM PM PM PM PM PM              
  E     E  E  S  E  E  E  S  E     E  E  S  E  E  S  S S S S E    
--------------------------------|--------------------------------|
--------------------------------|--------------------------------|
--------------------------------|--------------------------------|
--------------------------------|--------------------------------|
--0-----0--0--0--0--0--0--0--0--|--0--0--0--0--0---------5-5-5~--|
--0-----0--0--0--0--0--0--0--0--|--0--0--0--0--0--0--5-7---------|


  PM PM PM PM PM PM PM PM PM                             
  E  E  E  S  E  E  E  S  E     E  E  E  E  E  E  E  E   
-----------------------------|--------------------------|
-----------------------------|--------------------------|
-----------------------------|--------------------------|
-----------------------------|--------------3--3--5--5--|
--0--0--0--0--0--0--0--0--0--|--3--3--5--5--1--1--3--3--|
--0--0--0--0--0--0--0--0--0--|--3--3--5--5--------------|


  PM PM PM PM PM PM PM PM PM    PM PM PM PM PM PM              
  E  E  E  S  E  E  E  S  E     E  E  S  E  E  S  S S S S E    
-----------------------------|--------------------------------|
-----------------------------|--------------------------------|
-----------------------------|--------------------------------|
-----------------------------|--------------------------------|
--0--0--0--0--0--0--0--0--0--|--0--0--0--0--0---------5-5-5~--|
--0--0--0--0--0--0--0--0--0--|--0--0--0--0--0--0--5-7---------|


  PM PM PM PM PM PM PM PM PM                             
  E  E  E  S  E  E  E  S  E     E  E  E  E  E  E  E  E   
-----------------------------|--------------------------|
-----------------------------|--------------------------|
-----------------------------|--------------------------|
-----------------------------|--------------3--3--5--5--|
--0--0--0--0--0--0--0--0--0--|--3--3--5--5--1--1--3--3--|
--0--0--0--0--0--0--0--0--0--|--3--3--5--5--------------|


  Coro A                                                
            ^ v      ^ v               ^ v      ^ v     
  Q      E  S S Q    S S E     Q    E  S S Q    S S E   
----------------------------|--------------------------|
----------------------------|--------------------------|
--7------7--x-x-7----x-x-3--|--L----3--x-x-3----x-x-5--|
--7------7--x-x-7----x-x-3--|--L----3--x-x-3----x-x-5--|
--5------5--x-x-5----x-x-1--|--L----1--x-x-1----x-x-3--|
----------------------------|--------------------------|


          ^ v      ^ v                                         ^ v      ^ v     
  Q    E  S S Q    S S E     E  E  E  E  E.  E.  E     Q    E  S S Q    S S E   
--------------------------|-------------------------|--------------------------|
--------------------------|-------------------------|--------------------------|
--L----5--x-x-5----x-x-7--|--L-------------------7--|--L----7--x-x-7----x-x-3--|
--L----5--x-x-5----x-x-7--|--L-------------------7--|--L----7--x-x-7----x-x-3--|
--L----3--x-x-3----x-x-5--|--L--3--5--6--5---3---5--|--L----5--x-x-5----x-x-1--|
--------------------------|-----3--5--6--5---3------|--------------------------|


          ^ v      ^ v               ^ v      ^ v                               
  Q    E  S S Q    S S E     Q    E  S S Q    S S E     E  E  E  E  E.  E.  E   
--------------------------|--------------------------|-------------------------|
--------------------------|--------------------------|-------------------------|
--L----3--x-x-3----x-x-5--|--L----5--x-x-5----x-x-7--|--L-------------------7--|
--L----3--x-x-3----x-x-5--|--L----5--x-x-5----x-x-7--|--L-------------------7--|
--L----1--x-x-1----x-x-3--|--L----3--x-x-3----x-x-5--|--L--3--5--6--5---3---5--|
--------------------------|--------------------------|-----3--5--6--5---3------|


  Coro B                                                
            ^ v      ^ v               ^ v      ^ v     
  Q      E  S S Q    S S E     Q    E  S S Q    S S E   
----------------------------|--------------------------|
----------------------------|--------------------------|
--L------7--x-x-7----x-x-3--|--L----3--x-x-3----x-x-5--|
--L------7--x-x-7----x-x-3--|--L----3--x-x-3----x-x-5--|
--L------5--x-x-5----x-x-1--|--L----1--x-x-1----x-x-3--|
----------------------------|--------------------------|


          ^ v      ^ v                                         ^ v      ^ v     
  Q    E  S S Q    S S E     E  E  E  E  E.  E.  E     Q    E  S S Q    S S E   
--------------------------|-------------------------|--------------------------|
--------------------------|-------------------------|--------------------------|
--L----5--x-x-5----x-x-7--|--L-------------------7--|--L----7--x-x-7----x-x-3--|
--L----5--x-x-5----x-x-7--|--L-------------------7--|--L----7--x-x-7----x-x-3--|
--L----3--x-x-3----x-x-5--|--L--3--5--6--5---3---5--|--L----5--x-x-5----x-x-1--|
--------------------------|-----3--5--6--5---3------|--------------------------|


          ^ v      ^ v               ^ v      ^ v                               
  Q    E  S S Q    S S E     Q    E  S S Q    S S E     E  E  E  E  E.  E.  E   
--------------------------|--------------------------|-------------------------|
--------------------------|--------------------------|-------------------------|
--L----3--x-x-3----x-x-5--|--L----5--x-x-5----x-x-7--|--L----------------------|
--L----3--x-x-3----x-x-5--|--L----5--x-x-5----x-x-7--|--L----------------------|
--L----1--x-x-1----x-x-3--|--L----3--x-x-3----x-x-5--|--L--3--5--6--5---3---5--|
--------------------------|--------------------------|-----3--5--6--5---3---0--|


  Break                                                         
  PM    PM PM PM PM PM PM         PM PM PM PM PM PM PM PM       
  E     E  E  S  E  S  E  Q       S  E  S  E  S  E  S  E  Q     
-------------------------------|-------------------------------|
-------------------------------|-------------------------------|
-------------------------------|-------------------------------|
--7-----7--7--7--7--7--7-------|--7--7--7--7--7--7--7--7-------|
--5-----5--5--5--5--5--5-------|--5--5--5--5--5--5--5--5-------|
-------------------------------|-------------------------------|


  PM PM PM PM PM PM PM         PM PM PM PM PM PM PM PM       
  E  E  E  S  E  S  E  Q       S  E  S  E  S  E  S  E  Q     
----------------------------|-------------------------------|
----------------------------|-------------------------------|
----------------------------|-------------------------------|
--7--7--7--7--7--7--7-------|--7--7--7--7--7--7--7--7--3----|
--5--5--5--5--5--5--5-------|--5--5--5--5--5--5--5--5--1----|
----------------------------|-------------------------------|


  Puente                                                         
  PM     PM PM PM PM PM PM         PM PM PM PM PM PM PM PM       
  E      E  E  S  E  S  E  Q       S  E  S  E  S  E  S  E  Q     
--------------------------------|-------------------------------|
--------------------------------|-------------------------------|
--------------------------------|-------------------------------|
--7------7--7--7--7--7--7-------|--7--7--7--7--7--7--7--7-------|
--5------5--5--5--5--5--5-------|--5--5--5--5--5--5--5--5-------|
--------------------------------|-------------------------------|


  PM PM PM PM PM PM PM         PM PM PM PM PM             
  E  E  E  S  E  S  E  Q       S  E  S  E  S  E.  Q.      
----------------------------|----------------------------|
----------------------------|----------------------------|
----------------------------|----------------------------|
--7--7--7--7--7--7--7-------|--7--7--7--7--7--7---L------|
--5--5--5--5--5--5--5-------|--5--5--5--5--5--5---L------|
----------------------------|----------------------------|


  Solo Adrian Smith                                        
  Q                 E.  S H           Q    E.  S H         
-----------------------------------|----------------------|
-----------------------------------|----------------------|
-----------------------------------|----------------------|
--3-----------------L---7-L--------|--5----L---7-L--------|
--1-----------------L---5-L--------|--3----L---5-L--------|
-----------------------------------|----------------------|


  Q    E.  S H           Q    E.  S H           Q    E.  S H         
----------------------|----------------------|----------------------|
----------------------|----------------------|----------------------|
----------------------|----------------------|----------------------|
--3----L---7-L--------|--5----L---7-L--------|--3----L---7-L--------|
--1----L---5-L--------|--3----L---5-L--------|--1----L---5-L--------|
----------------------|----------------------|----------------------|


  Q    E.  S H           Q    E.  S H           W                 
----------------------|----------------------|-------------------|
----------------------|----------------------|-------------------|
----------------------|----------------------|-------------------|
--5----L---7-L--------|--3----L---7-L--------|--5----------------|
--3----L---5-L--------|--1----L---5-L--------|--3----------------|
----------------------|----------------------|-------------------|


  Coro A                                                
            ^ v      ^ v               ^ v      ^ v     
  Q      E  S S Q    S S E     Q    E  S S Q    S S E   
----------------------------|--------------------------|
----------------------------|--------------------------|
--7------7--x-x-7----x-x-3--|--L----3--x-x-3----x-x-5--|
--7------7--x-x-7----x-x-3--|--L----3--x-x-3----x-x-5--|
--5------5--x-x-5----x-x-1--|--L----1--x-x-1----x-x-3--|
----------------------------|--------------------------|


          ^ v      ^ v                                         ^ v      ^ v     
  Q    E  S S Q    S S E     E  E  E  E  E.  E.  E     Q    E  S S Q    S S E   
--------------------------|-------------------------|--------------------------|
--------------------------|-------------------------|--------------------------|
--L----5--x-x-5----x-x-7--|--L-------------------7--|--L----7--x-x-7----x-x-3--|
--L----5--x-x-5----x-x-7--|--L-------------------7--|--L----7--x-x-7----x-x-3--|
--L----3--x-x-3----x-x-5--|--L--3--5--6--5---3---5--|--L----5--x-x-5----x-x-1--|
--------------------------|-----3--5--6--5---3------|--------------------------|


          ^ v      ^ v               ^ v      ^ v                               
  Q    E  S S Q    S S E     Q    E  S S Q    S S E     E  E  E  E  E.  E.  E   
--------------------------|--------------------------|-------------------------|
--------------------------|--------------------------|-------------------------|
--L----3--x-x-3----x-x-5--|--L----5--x-x-5----x-x-7--|--L-------------------7--|
--L----3--x-x-3----x-x-5--|--L----5--x-x-5----x-x-7--|--L-------------------7--|
--L----1--x-x-1----x-x-3--|--L----3--x-x-3----x-x-5--|--L--3--5--6--5---3---5--|
--------------------------|--------------------------|-----3--5--6--5---3------|


  Coro B                                                
            ^ v      ^ v               ^ v      ^ v     
  Q      E  S S Q    S S E     Q    E  S S Q    S S E   
----------------------------|--------------------------|
----------------------------|--------------------------|
--L------7--x-x-7----x-x-3--|--L----3--x-x-3----x-x-5--|
--L------7--x-x-7----x-x-3--|--L----3--x-x-3----x-x-5--|
--L------5--x-x-5----x-x-1--|--L----1--x-x-1----x-x-3--|
----------------------------|--------------------------|


          ^ v      ^ v                                         ^ v      ^ v     
  Q    E  S S Q    S S E     E  E  E  E  E.  E.  E     Q    E  S S Q    S S E   
--------------------------|-------------------------|--------------------------|
--------------------------|-------------------------|--------------------------|
--L----5--x-x-5----x-x-7--|--L-------------------7--|--L----7--x-x-7----x-x-3--|
--L----5--x-x-5----x-x-7--|--L-------------------7--|--L----7--x-x-7----x-x-3--|
--L----3--x-x-3----x-x-5--|--L--3--5--6--5---3---5--|--L----5--x-x-5----x-x-1--|
--------------------------|-----3--5--6--5---3------|--------------------------|


          ^ v      ^ v               ^ v      ^ v                               
  Q    E  S S Q    S S E     Q    E  S S Q    S S E     E  E  E  E  E.  E.  E   
--------------------------|--------------------------|-------------------------|
--------------------------|--------------------------|-------------------------|
--L----3--x-x-3----x-x-5--|--L----5--x-x-5----x-x-7--|--L-------------------7--|
--L----3--x-x-3----x-x-5--|--L----5--x-x-5----x-x-7--|--L-------------------7--|
--L----1--x-x-1----x-x-3--|--L----3--x-x-3----x-x-5--|--L--3--5--6--5---3---5--|
--------------------------|--------------------------|-----3--5--6--5---3------|


  Outro Coro                                                
                ^ v      ^ v               ^ v      ^ v     
  Q          E  S S Q    S S E     Q    E  S S Q    S S E   
--------------------------------|--------------------------|
--------------------------------|--------------------------|
--L----------7--x-x-7----x-x-3--|--L----3--x-x-3----x-x-5--|
--L----------7--x-x-7----x-x-3--|--L----3--x-x-3----x-x-5--|
--L----------5--x-x-5----x-x-1--|--L----1--x-x-1----x-x-3--|
--------------------------------|--------------------------|


          ^ v      ^ v                                         ^ v      ^ v     
  Q    E  S S Q    S S E     E  E  E  E  E.  E.  E     Q    E  S S Q    S S E   
--------------------------|-------------------------|--------------------------|
--------------------------|-------------------------|--------------------------|
--L----5--x-x-5----x-x-7--|--L-------------------7--|--L----7--x-x-7----x-x-3--|
--L----5--x-x-5----x-x-7--|--L-------------------7--|--L----7--x-x-7----x-x-3--|
--L----3--x-x-3----x-x-5--|--L--3--5--6--5---3---5--|--L----5--x-x-5----x-x-1--|
--------------------------|-----3--5--6--5---3------|--------------------------|


          ^ v      ^ v               ^ v      ^ v     
  Q    E  S S Q    S S E     Q    E  S S Q    S S E   
--------------------------|--------------------------|
--------------------------|--------------------------|
--L----3--x-x-3----x-x-5--|--L----5--x-x-5----x-x-7--|
--L----3--x-x-3----x-x-5--|--L----5--x-x-5----x-x-7--|
--L----1--x-x-1----x-x-3--|--L----3--x-x-3----x-x-5--|
--------------------------|--------------------------|


  E  E  E  E  E.  E.  E.  E.    
------------------------------||
------------------------------||
--L---------------------------||
--L-------------------7-------||
--L--3--5--6--5---3---5-------||
-----3--5--6--5---3---0-------||




Guitar #3:
                             
Adrian Smith


          Intro                                                              
     S    Q        W                   W                   W                 
E||----|--------|-------------------|-------------------|-------------------|
B||----|--------|-------------------|-------------------|-------------------|
G||----|--------|-------------------|-------------------|-------------------|
D||----|--------|-------------------|-------------------|-------------------|
A||----|--------|-------------------|-------------------|-------------------|
D||----|--------|-------------------|-------------------|-------------------|


                      Main Riff                          
                      PM        PM PM PM PM PM PM PM PM  
  W                   E         E  E  S  E  E  E  S  E   
-------------------|------------------------------------|
-------------------|------------------------------------|
-------------------|------------------------------------|
-------------------|------------------------------------|
-------------------|--0---------0--0--0--0--0--0--0--0--|
-------------------|--0---------0--0--0--0--0--0--0--0--|


  PM PM PM PM  <                                    
  E  E  S  E   Q.      S  E      W                  
-----------------------------|---------------------|
-----------------------------|---------------------|
--------------14-------L-15--|--14~----------------|
-----------------------------|---------------------|
--0--0--0--0-----------------|---------------------|
--0--0--0--0-----------------|---------------------|


  T  T  T  T  T  T  T  T  T  T   T   T   T   T   T   T T   T   T   T   T   T   T
--------------------------------------------------------------------------------
--------------------------------------------------------------------------------
--0S-1S-2S-3S-4S-5S-6S-7S-8S-9S-10S-11S-12S-13S-14S-15-9S-10S-11S-12S-13S-14S-15
--0S-1S-2S-3S-4S-5S-6S-7S-8S-9S-10S-11S-12S-13S-14S-15-9S-10S-11S-12S-13S-14S-15
--------------------------------------------------------------------------------
--------------------------------------------------------------------------------


  Verso                                                           
  PM    PM PM PM PM PM PM PM PM    PM PM PM PM PM PM              
  E     E  E  S  E  E  E  S  E     E  E  S  E  E  S  S S S S E    
--------------------------------|--------------------------------|
--------------------------------|--------------------------------|
--------------------------------|--------------------------------|
--------------------------------|--------------------------------|
--0-----0--0--0--0--0--0--0--0--|--0--0--0--0--0---------5-5-5~--|
--0-----0--0--0--0--0--0--0--0--|--0--0--0--0--0--0--5-7---------|


  PM PM PM PM PM PM PM PM PM                             
  E  E  E  S  E  E  E  S  E     E.  S E.  S E.  S E.  S  
-----------------------------|--------------------------|
-----------------------------|--------------------------|
-----------------------------|--------------------------|
-----------------------------|--------------3-----5-----|
--0--0--0--0--0--0--0--0--0--|--3-----5-----1-----3-----|
--0--0--0--0--0--0--0--0--0--|--3-----5-----------------|


  PM PM PM PM PM PM PM PM PM    PM PM PM PM PM PM              
  E  E  E  S  E  E  E  S  E     E  E  S  E  E  S  S S S S E    
-----------------------------|--------------------------------|
-----------------------------|--------------------------------|
-----------------------------|--------------------------------|
-----------------------------|--------------------------------|
--0--0--0--0--0--0--0--0--0--|--0--0--0--0--0---------5-5-5~--|
--0--0--0--0--0--0--0--0--0--|--0--0--0--0--0--0--5-7---------|


  PM PM PM PM PM PM PM PM PM                             
  E  E  E  S  E  E  E  S  E     E.  S E.  S E.  S E.  S  
-----------------------------|--------------------------|
-----------------------------|--------------------------|
-----------------------------|--------------------------|
-----------------------------|--------------3-----5-----|
--0--0--0--0--0--0--0--0--0--|--3-----5-----1-----3-----|
--0--0--0--0--0--0--0--0--0--|--3-----5-----------------|


  Coro A                                                      
         v     PM PM      PM          v     PM PM      PM     
  E      E  E  S  S  Q    E  E     E  E  E  S  S  Q    E  E   
--------------------------------|----------------------------|
--------------------------------|----------------------------|
--------------------------------|----------------------------|
-----------------------------3--|--L--3--3--------3-------5--|
--0------0--0--------0-------1--|--L--1--1--1--1--1----1--3--|
--0------0--0--0--0--0----0-----|----------------------------|


     v     PM PM      PM                               
  E  E  E  S  S  Q    E  E     E  E  E  E  E.  E.  E   
----------------------------|-------------------------|
----------------------------|-------------------------|
----------------------------|-------------------------|
--L--5--5--------5-------7--|--L----------------------|
--L--3--3--3--3--3----3--5--|--L--3--5--6--5---3---0--|
----------------------------|-----3--5--6--5---3---0--|


     v     PM PM      PM          v     PM PM      PM     
  E  E  E  S  S  Q    E  E     E  E  E  S  S  Q    E  E   
----------------------------|----------------------------|
----------------------------|----------------------------|
----------------------------|----------------------------|
-------------------------3--|--L--3--3--------3-------5--|
--L--0--0--------0-------1--|--L--1--1--1--1--1----1--3--|
--L--0--0--0--0--0----0-----|----------------------------|


     v     PM PM      PM                               
  E  E  E  S  S  Q    E  E     E  E  E  E  E.  E.  E   
----------------------------|-------------------------|
----------------------------|-------------------------|
----------------------------|-------------------------|
--L--5--5--------5-------7--|--L----------------------|
--L--3--3--3--3--3----3--5--|--L--3--5--6--5---3---0--|
----------------------------|-----3--5--6--5---3---0--|


  Fill                                                           
  PM   PM PM PM PM PM PM PM PM    PM PM PM PM PM PM PM PM PM  
  E    E  E  S  E  E  E  S  E     E  E  S  E  E  E  S  E  E   
-------------------------------|-----------------------------|
-------------------------------|-----------------------------|
-------------------------------|-----------------------------|
-------------------------------|-----------------------------|
--0----0--0--0--0--0--0--0--0--|--0--0--0--0--0--0--0--0--0--|
--0----0--0--0--0--0--0--0--0--|--0--0--0--0--0--0--0--0--0--|


  Verso                                                           
  PM    PM PM PM PM PM PM PM PM    PM PM PM PM PM PM              
  E     E  E  S  E  E  E  S  E     E  E  S  E  E  S  S S S S E    
--------------------------------|--------------------------------|
--------------------------------|--------------------------------|
--------------------------------|--------------------------------|
--------------------------------|--------------------------------|
--0-----0--0--0--0--0--0--0--0--|--0--0--0--0--0---------5-5-5~--|
--0-----0--0--0--0--0--0--0--0--|--0--0--0--0--0--0--5-7---------|


  PM PM PM PM PM PM PM PM PM                             
  E  E  E  S  E  E  E  S  E     E.  S E.  S E.  S E.  S  
-----------------------------|--------------------------|
-----------------------------|--------------------------|
-----------------------------|--------------------------|
-----------------------------|--------------3-----5-----|
--0--0--0--0--0--0--0--0--0--|--3-----5-----1-----3-----|
--0--0--0--0--0--0--0--0--0--|--3-----5-----------------|


  PM PM PM PM PM PM PM PM PM    PM PM PM PM PM PM              
  E  E  E  S  E  E  E  S  E     E  E  S  E  E  S  S S S S E    
-----------------------------|--------------------------------|
-----------------------------|--------------------------------|
-----------------------------|--------------------------------|
-----------------------------|--------------------------------|
--0--0--0--0--0--0--0--0--0--|--0--0--0--0--0---------5-5-5~--|
--0--0--0--0--0--0--0--0--0--|--0--0--0--0--0--0--5-7---------|


  PM PM PM PM PM PM PM PM PM                             
  E  E  E  S  E  E  E  S  E     E.  S E.  S E.  S E.  S  
-----------------------------|--------------------------|
-----------------------------|--------------------------|
-----------------------------|--------------------------|
-----------------------------|--------------3-----5-----|
--0--0--0--0--0--0--0--0--0--|--3-----5-----1-----3-----|
--0--0--0--0--0--0--0--0--0--|--3-----5-----------------|


  Coro A                                                      
         v     PM PM      PM          v     PM PM      PM     
  E      E  E  S  S  Q    E  E     E  E  E  S  S  Q    E  E   
--------------------------------|----------------------------|
--------------------------------|----------------------------|
--------------------------------|----------------------------|
-----------------------------3--|--L--3--3--------3-------5--|
--0------0--0--------0-------1--|--L--1--1--1--1--1----1--3--|
--0------0--0--0--0--0----0-----|----------------------------|


     v     PM PM      PM                               
  E  E  E  S  S  Q    E  E     E  E  E  E  E.  E.  E   
----------------------------|-------------------------|
----------------------------|-------------------------|
----------------------------|-------------------------|
--L--5--5--------5-------7--|--L----------------------|
--L--3--3--3--3--3----3--5--|--L--3--5--6--5---3---0--|
----------------------------|-----3--5--6--5---3---0--|


     v     PM PM      PM          v     PM PM      PM     
  E  E  E  S  S  Q    E  E     E  E  E  S  S  Q    E  E   
----------------------------|----------------------------|
----------------------------|----------------------------|
----------------------------|----------------------------|
-------------------------3--|--L--3--3--------3-------5--|
--L--0--0--------0-------1--|--L--1--1--1--1--1----1--3--|
--L--0--0--0--0--0----0-----|----------------------------|


     v     PM PM      PM                               
  E  E  E  S  S  Q    E  E     E  E  E  E  E.  E.  E   
----------------------------|-------------------------|
----------------------------|-------------------------|
----------------------------|-------------------------|
--L--5--5--------5-------7--|--L----------------------|
--L--3--3--3--3--3----3--5--|--L--3--5--6--5---3---0--|
----------------------------|-----3--5--6--5---3---0--|


  Coro B                                                      
         v     PM PM      PM          v     PM PM      PM     
  E      E  E  S  S  Q    E  E     E  E  E  S  S  Q    E  E   
--------------------------------|----------------------------|
--------------------------------|----------------------------|
--------------------------------|----------------------------|
-----------------------------3--|--L--3--3--------3-------5--|
--L------0--0--------0-------1--|--L--1--1--1--1--1----1--3--|
--L------0--0--0--0--0----0-----|----------------------------|


     v     PM PM      PM                               
  E  E  E  S  S  Q    E  E     E  E  E  E  E.  E.  E   
----------------------------|-------------------------|
----------------------------|-------------------------|
----------------------------|-------------------------|
--L--5--5--------5-------7--|--L----------------------|
--L--3--3--3--3--3----3--5--|--L--3--5--6--5---3---0--|
----------------------------|-----3--5--6--5---3---0--|


     v     PM PM      PM          v     PM PM      PM     
  E  E  E  S  S  Q    E  E     E  E  E  S  S  Q    E  E   
----------------------------|----------------------------|
----------------------------|----------------------------|
----------------------------|----------------------------|
-------------------------3--|--L--3--3--------3-------5--|
--L--0--0--------0-------1--|--L--1--1--1--1--1----1--3--|
--L--0--0--0--0--0----0-----|----------------------------|


     v     PM PM      PM                               
  E  E  E  S  S  Q    E  E     E  E  E  E  E.  E.  E   
----------------------------|-------------------------|
----------------------------|-------------------------|
----------------------------|-------------------------|
--L--5--5--------5-------7--|--L----------------------|
--L--3--3--3--3--3----3--5--|--L--3--5--6--5---3---0--|
----------------------------|-----3--5--6--5---3---0--|


  Break                                                                         
  PM    PM PM PM PM PM PM                                                       
  E     E  E  S  E  S  E   X   X   X   X   X   X   X   X  X  X  X  X  X  X  X  X
--------------------------------------------------------------------------------
--------------------------------------------------------------------------------
--------------------------------------------------------------------------------
--------------------------------------------------------------------------------
--0-----0--0--0--0--0--0--17S-16S-15S-14S-13S-12S-11S-10S-9S-8S-7S-6S-5S-4S-3S-2
--0-----0--0--0--0--0--0--17S-16S-15S-14S-13S-12S-11S-10S-9S-8S-7S-6S-5S-4S-3S-2


  PM PM PM PM PM PM PM PM                                                       
  S  E  S  E  S  E  S  E  X  X  X  X  X  X  X  X   X   X   X   X   X   X   X   X
--------------------------------------------------------------------------------
--------------------------------------------------------------------------------
--------------------------------------------------------------------------------
--------------------------------------------------------------------------------
--0--0--0--0--0--0--0--0--2S-3S-4S-5S-6S-7S-8S-9S-10S-11S-12S-13S-14S-15S-16S-17
--0--0--0--0--0--0--0--0--2S-3S-4S-5S-6S-7S-8S-9S-10S-11S-12S-13S-14S-15S-16S-17


  PM PM PM PM PM PM PM       
  E  E  E  S  E  S  E  Q     
----------------------------|
----------------------------|
----------------------------|
----------------------------|
--0--0--0--0--0--0--0-------|
--0--0--0--0--0--0--0-------|


  PM PM                                                  
  S  E   S   S   S   S   S   S   S   S   S   S  S  S  S  
--------------------------------------------------------|
--------------------------------------------------------|
--------19S-18S-17S-16S-15S-14S-13S-12S-11S-10S-9S-8S-7-|
--------19S-18S-17S-16S-15S-14S-13S-12S-11S-10S-9S-8S-7-|
--0--0--------------------------------------------------|
--0--0--------------------------------------------------|


  Puente                                                         
  PM     PM PM PM PM PM PM         PM PM PM PM PM PM PM PM       
  E      E  E  S  E  S  E  Q       S  E  S  E  S  E  S  E  Q     
--------------------------------|-------------------------------|
--------------------------------|-------------------------------|
--------------------------------|-------------------------------|
--------------------------------|-------------------------------|
--0------0--0--0--0--0--0-------|--0--0--0--0--0--0--0--0-------|
--0------0--0--0--0--0--0-------|--0--0--0--0--0--0--0--0-------|


  PM PM PM PM PM PM PM         PM PM PM PM PM             
  E  E  E  S  E  S  E  Q       S  E  S  E  S  E.  Q.      
----------------------------|----------------------------|
----------------------------|----------------------------|
----------------------------|----------------------------|
----------------------------|----------------------------|
--0--0--0--0--0--0--0-------|--0--0--0--0--0--5---L------|
--0--0--0--0--0--0--0-------|--0--0--0--0--0--0---L------|


  Solo Adrian Smith                                                             
  Q.                S S H           Q.     S S H           Q.     S S H         
---------------------------------|----------------------|----------------------|
---------------------------------|----------------------|----------------------|
---------------------------------|----------------------|----------------------|
--3-----------------x------------|--5------x------------|--3------x------------|
--1-----------------x-0-L--------|--3------x-0-L--------|--1------x-0-L--------|
----------------------0-L--------|-----------0-L--------|-----------0-L--------|


  Q.     S S H           Q.     S S H           Q.     S S H         
----------------------|----------------------|----------------------|
----------------------|----------------------|----------------------|
----------------------|----------------------|----------------------|
--5------x------------|--3------x------------|--5------x------------|
--3------x-0-L--------|--1------x-0-L--------|--3------x-0-L--------|
-----------0-L--------|-----------0-L--------|-----------0-L--------|


                                             Coro A                         
                                                    v     PM PM      PM     
  Q.     S S H           W                   E      E  E  S  S  Q    E  E   
----------------------|-------------------|--------------------------------|
----------------------|-------------------|--------------------------------|
----------------------|-------------------|--------------------------------|
--3------x------------|--5----------------|-----------------------------3--|
--1------x-0-L--------|--3----------------|--0------0--0--------0-------1--|
-----------0-L--------|-------------------|--0------0--0--0--0--0----0-----|


     v     PM PM      PM          v     PM PM      PM     
  E  E  E  S  S  Q    E  E     E  E  E  S  S  Q    E  E   
----------------------------|----------------------------|
----------------------------|----------------------------|
----------------------------|----------------------------|
--L--3--3--------3-------5--|--L--5--5--------5-------7--|
--L--1--1--1--1--1----1--3--|--L--3--3--3--3--3----3--5--|
----------------------------|----------------------------|


                               v     PM PM      PM     
  E  E  E  E  E.  E.  E     E  E  E  S  S  Q    E  E   
-------------------------|----------------------------|
-------------------------|----------------------------|
-------------------------|----------------------------|
--L----------------------|-------------------------3--|
--L--3--5--6--5---3---0--|--L--0--0--------0-------1--|
-----3--5--6--5---3---0--|--L--0--0--0--0--0----0-----|


     v     PM PM      PM          v     PM PM      PM     
  E  E  E  S  S  Q    E  E     E  E  E  S  S  Q    E  E   
----------------------------|----------------------------|
----------------------------|----------------------------|
----------------------------|----------------------------|
--L--3--3--------3-------5--|--L--5--5--------5-------7--|
--L--1--1--1--1--1----1--3--|--L--3--3--3--3--3----3--5--|
----------------------------|----------------------------|


                            Coro B                         
                                   v     PM PM      PM     
  E  E  E  E  E.  E.  E     E      E  E  S  S  Q    E  E   
-------------------------|--------------------------------|
-------------------------|--------------------------------|
-------------------------|--------------------------------|
--L----------------------|-----------------------------3--|
--L--3--5--6--5---3---0--|--L------0--0--------0-------1--|
-----3--5--6--5---3---0--|--L------0--0--0--0--0----0-----|


     v     PM PM      PM          v     PM PM      PM     
  E  E  E  S  S  Q    E  E     E  E  E  S  S  Q    E  E   
----------------------------|----------------------------|
----------------------------|----------------------------|
----------------------------|----------------------------|
--L--3--3--------3-------5--|--L--5--5--------5-------7--|
--L--1--1--1--1--1----1--3--|--L--3--3--3--3--3----3--5--|
----------------------------|----------------------------|


                               v     PM PM      PM     
  E  E  E  E  E.  E.  E     E  E  E  S  S  Q    E  E   
-------------------------|----------------------------|
-------------------------|----------------------------|
-------------------------|----------------------------|
--L----------------------|-------------------------3--|
--L--3--5--6--5---3---0--|--L--0--0--------0-------1--|
-----3--5--6--5---3---0--|--L--0--0--0--0--0----0-----|


     v     PM PM      PM          v     PM PM      PM     
  E  E  E  S  S  Q    E  E     E  E  E  S  S  Q    E  E   
----------------------------|----------------------------|
----------------------------|----------------------------|
----------------------------|----------------------------|
--L--3--3--------3-------5--|--L--5--5--------5-------7--|
--L--1--1--1--1--1----1--3--|--L--3--3--3--3--3----3--5--|
----------------------------|----------------------------|


                            Outro Coro                         
                                       v     PM PM      PM     
  E  E  E  E  E.  E.  E     E          E  E  S  S  Q    E  E   
-------------------------|------------------------------------|
-------------------------|------------------------------------|
-------------------------|------------------------------------|
--L----------------------|---------------------------------3--|
--L--3--5--6--5---3---0--|--L----------0--0--------0-------1--|
-----3--5--6--5---3---0--|--L----------0--0--0--0--0----0-----|


     v     PM PM      PM          v     PM PM      PM     
  E  E  E  S  S  Q    E  E     E  E  E  S  S  Q    E  E   
----------------------------|----------------------------|
----------------------------|----------------------------|
----------------------------|----------------------------|
--L--3--3--------3-------5--|--L--5--5--------5-------7--|
--L--1--1--1--1--1----1--3--|--L--3--3--3--3--3----3--5--|
----------------------------|----------------------------|


                               v     PM PM      PM     
  E  E  E  E  E.  E.  E     E  E  E  S  S  Q    E  E   
-------------------------|----------------------------|
-------------------------|----------------------------|
-------------------------|----------------------------|
--L----------------------|-------------------------3--|
--L--3--5--6--5---3---0--|--L--0--0--------0-------1--|
-----3--5--6--5---3---0--|--L--0--0--0--0--0----0-----|


     v     PM PM      PM          v     PM PM      PM     
  E  E  E  S  S  Q    E  E     E  E  E  S  S  Q    E  E   
----------------------------|----------------------------|
----------------------------|----------------------------|
----------------------------|----------------------------|
--L--3--3--------3-------5--|--L--5--5--------5-------7--|
--L--1--1--1--1--1----1--3--|--L--3--3--3--3--3----3--5--|
----------------------------|----------------------------|


  E  E  E  E  E.  E.  Q    E    
------------------------------||
------------------------------||
------------------------------||
--L---------------------------||
--L--3--5--6--5---3---0-------||
-----3--5--6--5---3---0-------||




Voice Melody:
                              
Mikee Goodman


          Intro                                                              
     S    Q        W                   W                   W                 
E||----|--------|-------------------|-------------------|-------------------|
B||----|--------|-------------------|-------------------|-------------------|
G||----|--------|-------------------|-------------------|-------------------|
D||----|--------|-------------------|-------------------|-------------------|
A||----|--------|-------------------|-------------------|-------------------|
E||----|--------|-------------------|-------------------|-------------------|


                      Main Riff                                                 
  W                   W                   W                   W                 
-------------------|-------------------|-------------------|-------------------|
-------------------|-------------------|-------------------|-------------------|
-------------------|-------------------|-------------------|-------------------|
-------------------|-------------------|-------------------|-------------------|
-------------------|-------------------|-------------------|-------------------|
-------------------|-------------------|-------------------|-------------------|


                            Verso                                  
                  Well,     I     go  in  to    town to  day It's  
  H.           E  E         E     E   E   T  T  E    E   E.  E     
------------------8-----|--10----10--10--10--L-10---10--10---8----|
------------------------|-----------------------------------------|
------------------5-----|---7-----7---7---7--L--7----7---7---5----|
------------------------|-----------------------------------------|
------------------------|-----------------------------------------|
------------------------|-----------------------------------------|


   ci ty  smogand  ci ty  ways       E   very eye is    on  the floor    
   S  E   E.  E    S  E   E.  E      E   E    E   T  T  E   E   E.   E   
--10-10--10---8---10-10--10------|--10--10---10--10--L-10--10--10-------|
---------------------------------|--------------------------------------|
---7--7---7---5----7--7---7------|---7---7----7---7--L--7---7---7-------|
---------------------------------|--------------------------------------|
---------------------------------|--------------------------------------|
---------------------------------|--------------------------------------|


  Try ing so hard to ig nore.   You     watch your back and    be  a   ware    
  E   E   E  E    E  E  S     S E       E     E    E    T   T  E   E   E.  E   
----------5--5----6--6--8-----L-8---|--10----10---10---10---L-10--10--10------|
--8---8-----------------------------|-----------------------------------------|
----------2--2----3--3--5-----L-5---|---7-----7----7----7---L--7---7---7------|
--5---5-----------------------------|-----------------------------------------|
------------------------------------|-----------------------------------------|
------------------------------------|-----------------------------------------|


   Blood runs cold,then  di    sa  ppearsThere's  
   E     E    E    E     T  T  E   E.    E        
--10----10---10----8----10--L-10--10-----8-------|
-------------------------------------------------|
---7-----7----7----5-----7--L--7---7-----5-------|
-------------------------------------------------|
-------------------------------------------------|
-------------------------------------------------|


   soot and sad ness in  the    air       No one e  ven seem to care.    
   E    E   E   E    E   T   T  E.  E     E  E   E  E   E    E  E.    S  
--10---10--10--10---10--10---L-10------|---------5--5---6----6--8-------|
---------------------------------------|--8--8--------------------------|
---7----7---7---7----7---7---L--7------|---------2--2---3----3--5-------|
---------------------------------------|--5--5--------------------------|
---------------------------------------|--------------------------------|
---------------------------------------|--------------------------------|


   Coro A                                                                 
   Do     you wa  nna ho  ver To  wards        the air of  su  mmer   To  
   E      E   E   E   E   E   E   E        E   E   E   E   E   E.  S  E   
--17-----17--17--17--17--13--13--15----|---L--15--15--17--15--13-----13--|
---------------------------------------|---------------------------------|
--14-----14--14--14--14--10--10--12----|---L--12--12--14--12--10-----10--|
---------------------------------------|---------------------------------|
---------------------------------------|---------------------------------|
---------------------------------------|---------------------------------|


   love wi  thin the land    Oh, they say 
   E    E   E    E   S    S  E   E    E   
--15---15--15---15--15----L-13--13---17--|
-----------------------------------------|
--12---12--12---12--12----L-10--10---14--|
-----------------------------------------|
-----------------------------------------|
-----------------------------------------|


       there    ain't no  place like    home?/But 
   E   S     S  E     E   E.    E    S  E         
---L--18-----L-17----17--15----13----L-17--------|
---------------------------------------15--------|
---L--15-----L-14----14--12----10----L-14--------|
---------------------------------------12--------|
-------------------------------------------------|
-------------------------------------------------|


       it  ain't he  re     No,        it's no  one ne  ar     I   
   E   E   Q     E   E  E   E      E   E    E   E   E   E  E   E   
---L--17--17----17--13-----15--|---L--15---15--17--15--13-----13--|
---L---------------------------|----------------------------------|
---L--14--14----14--10-----12--|---L--12---12--14--12--10-----10--|
---L---------------------------|----------------------------------|
-------------------------------|----------------------------------|
-------------------------------|----------------------------------|


   need to  find that    shore    Oh, they say 
   E    E   E    S    S  S     S  E   E    E   
--15---15--15---15----L-15-----L-13--13---17--|
----------------------------------------------|
--12---12--12---12----L-12-----L-10--10---14--|
----------------------------------------------|
----------------------------------------------|
----------------------------------------------|


                                                 Fill               
       there    ain't no  place like    home.                       
   E   S     S  E     E   E.    E    S  E        Q    H.            
---L--18-----L-17----17--15----13----L-------|---------------------|
---------------------------------------15----|---L-----------------|
---L--15-----L-14----14--12----10----L-------|---------------------|
---------------------------------------12----|---L-----------------|
---------------------------------------------|---------------------|
---------------------------------------------|---------------------|


                             Verso                                   
                   Well,     I     get back u     pon the trainIt's  
  H.           E.  S         E     E   E    T  T  E   E   E.   E     
-------------------8-----|--10----10--10---10--L-10--10--10----8----|
-------------------------|------------------------------------------|
-------------------5-----|---7-----7---7----7--L--7---7---7----5----|
-------------------------|------------------------------------------|
-------------------------|------------------------------------------|
-------------------------|------------------------------------------|


   dark and duller    shades of  greyThose  
   E    E   S S    S  E      E   E.  E      
--10---10--10-8----L-10-----10--10---8-----|
-------------------------------------------|
---7----7---7-5----L--7------7---7---5-----|
-------------------------------------------|
-------------------------------------------|
-------------------------------------------|


   wings I   seego     fla    pping by  Those  
   E     E   E  S   S  T   T  E     E.  E      
--10----10--10--8---L-10---L-10----10---8-----|
----------------------------------------------|
---7-----7---7--5---L--7---L--7-----7---5-----|
----------------------------------------------|
----------------------------------------------|
----------------------------------------------|


  pi geons   swarm   then learn to cry.    
  E  S     S S     S E    E     E  E.   S  
-------------5-----L-5----6-----6--8------|
--8--8-----L------------------------------|
-------------2-----L-2----3-----3--5------|
--5--5-----L------------------------------|
------------------------------------------|
------------------------------------------|


   Ci  ty  smogand     ci  ty  smokeSky     looks like it'sa  bout to  chokeOn  
   E   E   E   T    T  E   E   E.   E       E     E    E   S  E    E   E.   E   
--10--10--10---8----L-10--10--10----8---|--10----10---10---8-10---10--10----8--|
----------------------------------------|--------------------------------------|
---7---7---7---5----L--7---7---7----5---|---7-----7----7---5--7----7---7----5--|
----------------------------------------|--------------------------------------|
----------------------------------------|--------------------------------------|
----------------------------------------|--------------------------------------|


   soot and sad ness in  the    air       No one e  ven seem to care.    
   E    E   E   E    E   T   T  E.  E     E  E   E  E   E    E  E.    S  
--10---10--10--10---10--10---L-10------|---------5--5---6----6--8-------|
---------------------------------------|--8--8--------------------------|
---7----7---7---7----7---7---L--7------|---------2--2---3----3--5-------|
---------------------------------------|--5--5--------------------------|
---------------------------------------|--------------------------------|
---------------------------------------|--------------------------------|


   Coro A                                                                   
   Do     you wa  nna ho  ver To    wards        the air of  su  mmer   To  
   E      E   E   E   E   E   S  S  E        E   E   E   E   E   E.  S  E   
--17-----17--17--17--17--13--13--L-15----|---L--15--15--17--15--13-----13--|
-----------------------------------------|---------------------------------|
--14-----14--14--14--14--10--10--L-12----|---L--12--12--14--12--10-----10--|
-----------------------------------------|---------------------------------|
-----------------------------------------|---------------------------------|
-----------------------------------------|---------------------------------|


   love wi  thin the land    Oh, they say 
   E    E   E    E   S    S  E   E    E   
--15---15--15---15--15----L-13--13---17--|
-----------------------------------------|
--12---12--12---12--12----L-10--10---14--|
-----------------------------------------|
-----------------------------------------|
-----------------------------------------|


       there    ain't no  place like    home?/But 
   E   S     S  E     E   E.    E    S  E         
---L--18-----L-17----17--15----13----L-17--------|
---------------------------------------15--------|
---L--15-----L-14----14--12----10----L-14--------|
---------------------------------------12--------|
-------------------------------------------------|
-------------------------------------------------|


       it  ain't he  re     No,        it's no  one ne  ar     I   
   E   E   Q     E   E  E   E      E   E    E   E   E   E  E   E   
---L--17--17----17--13-----15--|---L--15---15--17--15--13-----13--|
---L---------------------------|----------------------------------|
---L--14--14----14--10-----12--|---L--12---12--14--12--10-----10--|
---L---------------------------|----------------------------------|
-------------------------------|----------------------------------|
-------------------------------|----------------------------------|


   need to  find that    shore    Oh, they say 
   E    E   E    S    S  S     S  E   E    E   
--15---15--15---15----L-15-----L-13--13---17--|
----------------------------------------------|
--12---12--12---12----L-12-----L-10--10---14--|
----------------------------------------------|
----------------------------------------------|
----------------------------------------------|


       there    ain't no  place like    home. 
   E   S     S  E     E   E.    E    S  E     
---L--18-----L-17----17--15----13----L-------|
---------------------------------------15----|
---L--15-----L-14----14--12----10----L-------|
---------------------------------------12----|
---------------------------------------------|
---------------------------------------------|


   Coro B                                         
             (Oh)...Yea,    they feed off fe  ar  
   E     E   S           S  E    E    E   E   E   
------------25-----------L-25---25---24--24--25--|
---L---------------------------------------------|
------------22-----------L-22---22---21--21--22--|
---L--------15-----------L-15---15---14--14--15--|
-------------------------------------------------|
-------------------------------------------------|


      Oh    yea, they feed off fe  ar          Why    can't they go?    Oh, 
  E   S  S  E    E    E    E   E   E     Q     S   S  E     E    E.  S  E   
-----25--L-25---25---25---24--24--25--|-------25---L-25----25---22-----17--|
--------------------------------------|--------------------------------18--|
-----22--L-22---22---22---21--21--22--|-------22---L-22----22---19-----14--|
-----15--L-15---15---15---14--14--15--|-------15---L-15----15---12-----15--|
--------------------------------------|------------------------------------|
--------------------------------------|------------------------------------|


       there    ain't no  place like    home. 
   E   S     S  E     E   E.    E    S  E     
---L--18-----L-17----17--15----13----L-13----|
---L--20-----L-18----18----------------15----|
---L--15-----L-14----14--12----10----L-10----|
---L--17-----L-15----15----------------12----|
---------------------------------------------|
---------------------------------------------|


          (Oh)...Yea,    they feed off fe  ar  
   E  E   S           S  E    E    E   E   E   
---L-----25-----------L-25---25---24--24--25--|
---L------------------------------------------|
---L-----22-----------L-22---22---21--21--22--|
---L-----15-----------L-15---15---14--14--15--|
----------------------------------------------|
----------------------------------------------|


      Oh    yea, they feed off fe  ar          Why    can't    they go?    Oh, 
  E   S  S  E    E    E    E   E   E     Q     S   S  S     S  E    E.  S  E   
-----25--L-25---25---25---24--24--25--|-------25---L-25-----L-25---22-----17--|
--------------------------------------|---------------------------------------|
-----22--L-22---22---22---21--21--22--|-------22---L-22-----L-22---19-----14--|
-----15--L-15---15---15---14--14--15--|-------15---L-15-----L-15---12-----15--|
--------------------------------------|---------------------------------------|
--------------------------------------|---------------------------------------|


                                                 Break                   
       there    ain't no  place like    home.                            
   E   S     S  E     E   E.    E    S  E        E     S S H.            
---L--18-----L-17----17--15----13----L-13----|---L-----L----------------|
---------------------------------------15----|---L-----L----------------|
---L--15-----L-14----14--12----10----L-10----|---L-----L----------------|
---L--17-----L-15----15----------------12----|---L-----L----------------|
---------------------------------------------|--------------------------|
---------------------------------------------|--------------------------|


                                                              Puente            
  W                   W                   W                   W                 
-------------------|-------------------|-------------------|-------------------|
-------------------|-------------------|-------------------|-------------------|
-------------------|-------------------|-------------------|-------------------|
-------------------|-------------------|-------------------|-------------------|
-------------------|-------------------|-------------------|-------------------|
-------------------|-------------------|-------------------|-------------------|


  W                   W                   W                 
-------------------|-------------------|-------------------|
-------------------|-------------------|-------------------|
-------------------|-------------------|-------------------|
-------------------|-------------------|-------------------|
-------------------|-------------------|-------------------|
-------------------|-------------------|-------------------|


  Solo Adrian Smith                                          
  W                    W                   W                 
--------------------|-------------------|-------------------|
--------------------|-------------------|-------------------|
--------------------|-------------------|-------------------|
--------------------|-------------------|-------------------|
--------------------|-------------------|-------------------|
--------------------|-------------------|-------------------|


  W                   W                   W                   W                 
-------------------|-------------------|-------------------|-------------------|
-------------------|-------------------|-------------------|-------------------|
-------------------|-------------------|-------------------|-------------------|
-------------------|-------------------|-------------------|-------------------|
-------------------|-------------------|-------------------|-------------------|
-------------------|-------------------|-------------------|-------------------|


                       Coro A                                 
                       Do     you wa  nna ho  ver To    wards 
  W                    E      E   E   E   E   E   S  S  E     
-------------------|--17-----17--17--17--17--13--13--L-15----|
-------------------|-----------------------------------------|
-------------------|--14-----14--14--14--14--10--10--L-12----|
-------------------|-----------------------------------------|
-------------------|-----------------------------------------|
-------------------|-----------------------------------------|


       the air of  su  mmer   To     love wi  thin the land    Oh, they say 
   E   E   E   E   E   E.  S  E      E    E   E    E   S    S  E   E    E   
---L--15--15--17--15--13-----13--|--15---15--15---15--15----L-13--13---17--|
---------------------------------|-----------------------------------------|
---L--12--12--14--12--10-----10--|--12---12--12---12--12----L-10--10---14--|
---------------------------------|-----------------------------------------|
---------------------------------|-----------------------------------------|
---------------------------------|-----------------------------------------|


       there    ain't no  place like    home?/But 
   E   S     S  E     E   E.    E    S  E         
---L--18-----L-17----17--15----13----L-17--------|
---------------------------------------15--------|
---L--15-----L-14----14--12----10----L-14--------|
---------------------------------------12--------|
-------------------------------------------------|
-------------------------------------------------|


       it  ain't he  re     No,        it's no  one ne  ar     I   
   E   E   Q     E   E  E   E      E   E    E   E   E   E  E   E   
---L--17--17----17--13-----15--|---L--15---15--17--15--13-----13--|
---L---------------------------|----------------------------------|
---L--14--14----14--10-----12--|---L--12---12--14--12--10-----10--|
---L---------------------------|----------------------------------|
-------------------------------|----------------------------------|
-------------------------------|----------------------------------|


   need to  find that    shore    Oh, they say 
   E    E   E    S    S  S     S  E   E    E   
--15---15--15---15----L-15-----L-13--13---17--|
----------------------------------------------|
--12---12--12---12----L-12-----L-10--10---14--|
----------------------------------------------|
----------------------------------------------|
----------------------------------------------|


       there    ain't no  place like    home. 
   E   S     S  E     E   E.    E    S  E     
---L--18-----L-17----17--15----13----L-------|
---------------------------------------15----|
---L--15-----L-14----14--12----10----L-------|
---------------------------------------12----|
---------------------------------------------|
---------------------------------------------|


   Coro B                                         
             (Oh)...Yea,    they feed off fe  ar  
   E     E   S           S  E    E    E   E   E   
------------25-----------L-25---25---24--24--25--|
---L---------------------------------------------|
------------22-----------L-22---22---21--21--22--|
---L--------15-----------L-15---15---14--14--15--|
-------------------------------------------------|
-------------------------------------------------|


      Oh    yea, they feed off fe  ar          Why    can't they go?    Oh, 
  E   S  S  E    E    E    E   E   E     Q     S   S  E     E    E.  S  E   
-----25--L-25---25---25---24--24--25--|-------25---L-25----25---22-----17--|
--------------------------------------|--------------------------------18--|
-----22--L-22---22---22---21--21--22--|-------22---L-22----22---19-----14--|
-----15--L-15---15---15---14--14--15--|-------15---L-15----15---12-----15--|
--------------------------------------|------------------------------------|
--------------------------------------|------------------------------------|


       there    ain't no  place like    home. 
   E   S     S  E     E   E.    E    S  E     
---L--18-----L-17----17--15----13----L-13----|
---L--20-----L-18----18----------------15----|
---L--15-----L-14----14--12----10----L-10----|
---L--17-----L-15----15----------------12----|
---------------------------------------------|
---------------------------------------------|


          (Oh)...Yea,    they feed off fe  ar  
   E  E   S           S  E    E    E   E   E   
---L-----25-----------L-25---25---24--24--25--|
---L------------------------------------------|
---L-----22-----------L-22---22---21--21--22--|
---L-----15-----------L-15---15---14--14--15--|
----------------------------------------------|
----------------------------------------------|


      Oh    yea, they feed off fe  ar          Why    can't    they go?    Oh, 
  E   S  S  E    E    E    E   E   E     Q     S   S  S     S  E    E.  S  E   
-----25--L-25---25---25---24--24--25--|-------25---L-25-----L-25---22-----17--|
--------------------------------------|---------------------------------------|
-----22--L-22---22---22---21--21--22--|-------22---L-22-----L-22---19-----14--|
-----15--L-15---15---15---14--14--15--|-------15---L-15-----L-15---12-----15--|
--------------------------------------|---------------------------------------|
--------------------------------------|---------------------------------------|


       there    ain't no  place like    home. 
   E   S     S  E     E   E.    E    S  E     
---L--18-----L-17----17--15----13----L-13----|
---------------------------------------15----|
---L--15-----L-14----14--12----10----L-10----|
---L--17-----L-15----15----------------12----|
---------------------------------------------|
---------------------------------------------|


   Outro Coro                                                                   
   Do         you wa  nna ho  ver To    wards        the air of  su  mmer   To  
   E          E   E   E   E   E   S  S  E        E   E   E   E   E   E.  S  E   
--17---------17--17--17--17--13--13--L-15----|---L--15--15--17--15--13-----13--|
---------------------------------------------|---------------------------------|
--14---------14--14--14--14--10--10--L-12----|---L--12--12--14--12--10-----10--|
---------------------------------------------|---------------------------------|
---------------------------------------------|---------------------------------|
---------------------------------------------|---------------------------------|


   love wi  thin the land    Oh, they say 
   E    E   E    E   S    S  E   E    E   
--15---15--15---15--15----L-13--13---17--|
-----------------------------------------|
--12---12--12---12--12----L-10--10---14--|
-----------------------------------------|
-----------------------------------------|
-----------------------------------------|


       there    ain't no  place like    home?/But 
   E   S     S  E     E   E.    E    S  E         
---L--18-----L-17----17--15----13----L-17--------|
---------------------------------------15--------|
---L--15-----L-14----14--12----10----L-14--------|
---------------------------------------12--------|
-------------------------------------------------|
-------------------------------------------------|


       it  ain't he  re     No,        it's no  one ne  ar     I   
   E   E   Q     E   E  E   E      E   E    E   E   E   E  E   E   
---L--17--17----17--13-----15--|---L--15---15--17--15--13-----13--|
---L---------------------------|----------------------------------|
---L--14--14----14--10-----12--|---L--12---12--14--12--10-----10--|
---L---------------------------|----------------------------------|
-------------------------------|----------------------------------|
-------------------------------|----------------------------------|


   need to  find that    shore    Oh, they say 
   E    E   E    S    S  S     S  E   E    E   
--15---15--15---15----L-15-----L-13--13---17--|
----------------------------------------------|
--12---12--12---12----L-12-----L-10--10---14--|
----------------------------------------------|
----------------------------------------------|
----------------------------------------------|


       there    ain't no  place like home.    
   E   S     S  E     E   E.    E.   Q.       
---L--18-----L-17----17--15----13-----------||
------------------------------------15------||
---L--15-----L-14----14--12----10-----------||
------------------------------------12------||
--------------------------------------------||
--------------------------------------------||




Chorus: During "Chorus B" And "Outro Chorus"
                         
    
Coro: Tarin Kerry y Adrian


  Coro B                                                   
  Q       Q     Q     E   E      Q     Q     Q     E   E   
---------10----12----13--15--|---L----15----13----12--13--|
-----------------------------|----------------------------|
----------7-----9----10--12--|---L----12----10-----9--10--|
-----------------------------|----------------------------|
-----------------------------|----------------------------|
-----------------------------|----------------------------|


   Q     Q     E   E   E   E      Q     Q     E   E   E   E   
---L----13----12--10---L------|--------13----13--12---L--13--|
--------------------------18--|---L----------------------15--|
---L----10-----9---7---L--14--|---L----10----10---9---L--10--|
--------------------------15--|---L----------------------12--|
------------------------------|------------------------------|
------------------------------|------------------------------|


   Q     Q     Q     E   E      Q     Q     Q     E   E   
---L----10----12----13--15--|---L----15----13----12--13--|
---L------------------------|----------------------------|
---L-----7-----9----10--12--|---L----12----10-----9--10--|
---L------------------------|----------------------------|
----------------------------|----------------------------|
----------------------------|----------------------------|


   Q     Q     E   E   E   E      Q     Q     E   E   E   E   
---L----13----12--10---L------|--------13----13--12---L--13--|
--------------------------18--|---L----------------------15--|
---L----10-----9---7---L--14--|---L----10----10---9---L--10--|
--------------------------15--|---L----------------------12--|
------------------------------|------------------------------|
------------------------------|------------------------------|




Duration Legend
---------------
W - whole
H - half
Q - quarter
E - 8th
S - 16th
T - 32nd
X - 64th
. - note dotted
|-n-|  - n-tuplets


Tablature Legend
----------------
L - tied note
x - dead note
g - grace note
(n) - ghost note
> - accentuded note
NH - natural harmonic
AH - artificial harmonic
TH - tapped harmonic
SH - semi harmonic
PH - pitch harmonic
h - hammer on
p - pull off
b - bend
br - bendRelease
pb - preBend
pbr - preBendRelease
brb - bendReleaseBend
\n/ - tremolo bar dip
\n - tremolo bar dive
-/n - tremolo bar Release up
/n\ - tremolo bar inverted dip
/n - tremolo bar return
-\n - tremolo bar Release down
S - shift slide
s - legato slide
/ -  slide into from below or out of upwards
\ -  slide into from above or out of downwards
~ - vibrato
W - wide vibrato
tr - trill
TP - tremolo picking
T - tapping
S - slap
P - pop
< - fade in
^ - brush up
v - brush down
Добавлено: 24.06.2016
Другие материалы по этой песне:

Страница создана 18.05.2016
http://primanota.ru/primal-rock-rebellion/no-place-like-home-chords.htm
Привет, Гость.
Предлагаем пройти революционный курс по гитаре.
Подарок от PrimaNota.Ru, забирай!