PrimaNota.ru - самый крупный в мире бесплатный архив песенных текстов, аккордов, табулатур и нот


Priests - And Breeding - бас-таба, видео

Регистрация Запомнить меня
Войти через:  Facebook Google Twitter Vk Yandex Mail.ru

Priests - And Breeding - бас-таба, видео

Печатать
Просмотров: 73
-------------------------------------------------------------------------------
                             Priests - And Breeding
-------------------------------------------------------------------------------

Intro/Verse
G|-------12-11-------------12------12-11--------------|
D|-----11----------11/12/11------11-----------11-0----|
A|----------------------------------------------------|
E|-12----------12------------12-----------12----------|

"Trying to understand..."
G|------------------------------------------------------|
D|----------------------------------12-12-12-11-11------|
A|-12-12-12-12-12-12-12-12-11-11-11---------------------|
E|------------------------------------------------------|

"...fucking and breeding"
G|-------------------------------------|
D|-------------------------------------|
A|-----------------4-4-4-5-5-5-4-4-----|
E|-5-5-5-5-5-5-5-5---------------------|


"...you know what we gotta do"
G|-----------12-11---------------|
D|-----------------12-11---------|
A|--12-11-12---------------------|
E|-------------------------------|

"Barack Obama killed something in me"
G|-------------------------------------|
D|-------------------------------------|
A|-----------------4-4-4-5-5-5-4-4-----|
E|-5-5-5-5-5-5-5-5---------------------|


| /  slide up
| \  slide down
| h  hammer-on
| p  pull-off
| ~  vibrato
| +  harmonic
| x  Mute note
===============================================================================
Добавлено: 12.08.2015
Другие материалы по этой песне:
  • Аккорды и текст

Страница создана 12.08.2015
http://primanota.ru/priests/and-breeding-chords.htm
Привет, Гость.
Предлагаем пройти революционный курс по гитаре.
Подарок от PrimaNota.Ru, забирай!