PrimaNota.ru - самый крупный в мире бесплатный архив песенных текстов, аккордов, табулатур и нот


Pride And Glory - Troubled Wine - текст песни, таба, видео

Регистрация Запомнить меня
Войти через:  Facebook Google Twitter Vk Yandex Mail.ru

Pride And Glory - Troubled Wine - текст песни, таба, видео

Печатать
Просмотров: 113
TROUBLED WINE
                            As recorded by Zakk Wylde
                       (From the 1994 Album PRIDE & GLORY)

Music by Zakk Wylde
original tab transcribed by Alexander Thielmann
Coffinfeeder@t-online.de

New tab by: Rainboworiginal
Email: andrea.vox@hotmail.it
http://profile.ultimate-guitar.com/rainboworiginal/


(D A D G B E) - 'distortion'
(E A D G B E) - 'acoustic'

Intro:

        ~             ~            
|---------------|---------------|
|---------------|---------------|
|---------------|---------------|
|---------------|---------------|
|-0--3--3s===5--|------(5)------|
|-0--3--3s===5--|------(5)\3----|

|---------------|---------------|
|---------------|---------------|
|---------------|---------------|
|---------------|---------------|
|-0--3s=4s===5--|------(5)------|
|-0--3s=4s===5--|------(5)\3----|

|---------------|---------------|
|---------------|---------------|
|---------------|---------------|
|---------------|---------------|
|-0--3--3s===5--|------(5)------|
|-0--3--3s===5--|------(5)\3----|

        ~                      
|------------------|
|------------------|
|------------------|
|------------------|
|-/7-6-5-3s4s5-0---|
|-/7-6-5-3s4s5-0---|

                                        PM|
|-------------|---------------|---------------|------------|
|-------------|---------------|---------------|------------|
|-------------|---------------|---------------|------------|
|-/10---------|---------------|---------------|------------|
|-/10---------|-0--3-5----3-0-|-0--3-5--3-5-3-|-0--3-5-----|
|-/10---------|-0--3-5----3p0-|-0--3-5--3-5-3-|-0--3-5-----|


                            PM|             PM|                PM|
|-----------------|---------------|------------------|----------------|
|-----------------|---------------|------------------|----------------|
|-----------------|---------------|------------------|----------------|
|-----------------|---------------|------------------|----------------|
|-/7-6-5-3-4-5-0--|-0--3-5--3-5-3-|-0--3-5--3-/5s3S5-|-0--3-5--3-5-3--|
|-/7-6-5-3-4-5-0--|-0--3-5--3-5-3-|-0--3-5--3-/5s3S5-|-0--3-5--3-5-3--|

                     Verse:
     PM--|                  PM|     PM               PM|     PM ~~~~~~
|-------------------||------------------------|---------------------|-|
|-------------------||o-----------------------|----------------/6---|-|
|-------------------||------------------------|-------------------5-|-|
|-------------------||------------------------|---------------------|-|
|-/7-6-5-3-4-5-3----||o-3s0-0-0-3s0-0-/3-3----|-/3s0-0-0-3s0-0------|-|
|-/7-6-5-3-4-5-3----||--3s0-0-0-3s0-0-/3-3----|-/3s0-0-0-3s0-0------|-|


      PM|     PM               PM|     PM  ~~~~~~~~
|-----------------------|----------------------------||-|
|-----------------------|---------------------------o||-|
|-----------------------|----------------------------||-|
|-----------------------|----------------/10-(10)----||-|
|-3s0-0-0-3s0-0-/3-3----|-/3s0-0-0-3s0-0-/10-(10)---o||-|
|-3s0-0-0-3s0-0-/3-3----|-/3s0-0-0-3s0-0-/10-(10)----||-|


                                           PM|
|--------------------------|-------------------|
|--------------------------|-------------------|
|---0-(0)-------0-(0)------|----0--------------|
|--------------------------|-------------------|
|-3-------2-(2)-------/5s3-|-5-(5)-3s0-0---0-2-|
|---------------------/5s3-|-5-(5)-3s0-0-------|


                                             ~~~~~
|--------------------------|-----------------------|
|--------------------------|-----------/10-(10)----|
|---0-(0)-------0-(0)------|---0-------/10-(10)----|
|--------------------------|-----------/10---------|
|-3-------5-(5)-------/5s3-|-5---3s0-0-------------|
|---------------------/5s3-|-5---3s0-0-------------|


                                           PM---
|--------------------------|-------------------|
|--------------------------|-------------------|
|---0-(0)-------0-(0)------|----0--------------|
|--------------------------|-------------------|
|-3-------2-(2)-------/5s3-|-5-(5)-3s0-0---0-1-|
|---------------------/5s3-|-5-(5)-3s0-0---0-1-|


 -|   PM  PM  PM
|-----------------|-----------|---------|
|-----------------|-----------|------5--|
|-----------------|---0-0-----|------5--|
|-----------------|---5-5-(5)-|-(5)--5--|
|-3-3-3-3-3-3-3-3-|-5-5-5-(5)-|-(5)-----|
|-3-3-3-3-3-3-3-3-|-5-5-5-(5)-|-(5)-----|


  Chorus:
                                     PM|
||------2------------|------0------------|--------------------|
||o-----3--3---------|---------3---------|------5-------------|
||------2------2-----|-------------0-----|------5-------------|
||--0---0------------|-------------------|--------------------|
||o-0------------3h5-|-0-------------0-2-|-3------------------|
||--0----------------|-------------------|--------------------|
|
|
||--2---2--2-2-2-----|-------------------|-0-0--0---0-0-0-0-0-|
||o-3---3--3-3-3-----|-------------------|-1-1--1---1-1-1-1-1-|
||--2---2--2-2-2-----|-2-2--2--2-2-2-----|-0-0--0---0-0-0-0-0-|
||--0---0--0-0-0-----|-2-2--2--2-2-2-----|-2-2--2---2-2-2-2-2-|
||o--------------3h5-|-0-0--0--0-0-0-0h2-|-3-3--3---3-3-3-3-3-|
||-------------------|-------------------|--------------------|



  PM      PM
|-------------------||-------------|---2-----2-----2-|-----2-----2-----|
|------------------o||---------1-0-|-----3-----3-----|-3-----3-----3---|
|-------------------||-------0-----|-----------------|-----------------|
|---5-------3--3----||-0-----------|-0-----0-----0---|---0-----0-----0-|
|-5-5-5-5-0-3--3---o||-5-----------|-----------------|-----------------|
|-5-5-5-5-0-3--3----||-3-----------|-----------------|-----------------|
|
|-----3-3-----------||-------------|-----------------|-----------------|
|-----3-3----------o||-3-----------|-----------------|-----------------|
|-----0-0-----------||-------------|-----------------|-----------------|
|-----0-0---3---3---||-0-----------|-----------------|-----------------|
|-----2-2---3---3--o||-5-----------|-----------------|-----------------|
|-----3-3---1---1---||-3-----------|-----------------|-----------------|


|-----1-----0---------------|------------|-|
|-----------------3---------|-3----------|-|
|---2---2-----2-----2---0h2-|---2--------|-|
|-3-------3-----3-----3-----|-----3-0-3--|-|
|---------------------------|---------3--|-|
|---------------------------|---------3--|-|

1st Solo:

|-----------------|---------------------|----------------------|
|-9/--------------|-10/-----------------|----------------------|
|-9/--------------|-10/----------9------|---------/12-10-7-----|
|-----------------|----------------10---|-(10)-----------------|
|-----------------|---------------------|----------------------|
|-----------------|---------------------|----------------------|
|
|
|           PM|               PM|                        PM|
|-----------------|---------------------|----------------------|
|-----------------|---------------------|----------------------|
|-----------------|---------------------|----------------------|
|-----------------|---------------------|----------------------|
|--0---3-5--3-5-3-|--0---3-5--3-/5s=3S5-|---0---3---5----3-5-3-|
|--0---3-5--3-5-3-|--0---3-5--3-/5s=3S5-|---0---3---5----3-5-3-|


                   ~~~~~~~~~~~~~~~~~~~~~~~~~~~~~~~~~~~~~~~~~~~~~~
|------------------------|----------------------|----------------------------------|
|------------------------|-/15--15-15--15-/18---|-/15--15-15--15-/20----18-15------|
|-/13-/12-/10-10---7-----|----------------------|--------------------19------------|
|------------------------|----------------------|----------------------------------|
|------------------------|----------------------|----------------------------------|
|------------------------|----------------------|----------------------------------|
|
|                                       PM|                    PM|
|------------------------|----------------------|----------------------------------|
|------------------------|----------------------|----------------------------------|
|------------------------|----------------------|----------------------------------|
|------------------------|----------------------|----------------------------------|
|--/7---6---5--3-4-5-3---|---0---3--5---3---5-3-|---0---3--5---3--/5s=3S==5--------|
|--/7---6---5--3-4-5-3---|---0---3--5---3---5-3-|---0---3--5---3--/5s=3S==5--------|


|------------------------------------------|-------------------|
|-/20-----/20-----/20------/20-----/20-----|-14----------------|
|-----19-----19-----19------19-----19------|-14----------------|
|------------------------------------------|-------------------|
|------------------------------------------|-------------------|
|------------------------------------------|-------------------|
|
|                                PM|
|------------------------------------------|-------------------|
|------------------------------------------|-------------------|
|------------------------------------------|-------------------|
|------------------------------------------|-------------------|
|---0-----------3---5------------3---5---3-|-/7--6-5-3-4-5-3---|
|---0-----------3---5------------3---5---3-|-/7--6-5-3-4-5-3---|

2nd Solo:
                                                                           ~~~~~~~~~~~~~~
|---------------------------------------------|-------10---------------10----------------------|
|-13------13----------------------------------|-13b15-----13pb15r13b15----13b15-(13)pb15-------|
|-12b14---12b14r(12)p10-12-----10-------------|------------------------------------------------|
|---------------------------------12-12-------|------------------------------------------------|
|---------------------------------------------|------------------------------------------------|
|---------------------------------------------|------------------------------------------------|
|
|                                                                                          PM|
|---------------------------------------------|------------------------------------------------|
|---------------------------------------------|------------------------------------------------|
|-------0-(0)-------------------0----(0)------|--------0---------------------------------------|
|---------------------------------------------|------------------------------------------------|
|--3---------------------2-(2)-----------/5s3-|--5----(5)---------3s=======0------0--------0-2-|
|----------------------------------------/5s3-|--5----(5)---------3s=======0------0------------|


                                                                     ~~~~
|-----------14-----------------13--------12------|--------------------------------------|
|-------------------12-(12)----------------------|-----------12-10-(10)---------12s==10-|
|-/13-14p13-----/13---------13----10s12----------|-12-10----12-10-(10)------------------|
|------------------------------------------------|--------12-------------10s12----------|
|------------------------------------------------|--------------------------------------|
|------------------------------------------------|--------------------------------------|
|
|                                                                                ~~~~~
|------------------------------------------------|--------------------------------------|
|------------------------------------------------|----------------------/10----(10)-----|
|------0----(0)-----------------0----(0)---------|------0---------------/10----(10)-----|
|------------------------------------------------|----------------------/10-------------|
|---3-------------5-----(5)-----------------/5s3-|---5--------3s=0---0------------------|
|-------------------------------------------/5s3-|---5--------3s=0---0------------------|


|-13-10---------13-10-13-10--------13-13-10-10-10-13--10-13-10-------13-10-13--10------- 
|-------13-10----------------13-10-----------------------------13-10--------------13-10- 
|---------------------------------------------------------------------------------------       
|--------------------------------------------------------------------------------------- 
|--------------------------------------------------------------------------------------- 
|--------------------------------------------------------------------------------------- 

 13-10-------|
 ------13-10-|
 ------------|
 ------------|
 ------------|
 ------------|

|--------------------------------------------------------------------------------------
|--------------------------------------------------------------------------------------
|-------------0----------(0)------------------------------------0----------(0)---------
|--------------------------------------------------------------------------------------
|--3-----------------------------------2----------(2)----------------------------------
|--------------------------------------------------------------------------------------

 ------------|
 ------------|
 ------------|
 ------------|
 -/5s====3---|
 -/5s====3---|
              
                           ~~~~~~~~
|-13-13-10------------------------------------------|
|----------13--10-13pb15r==(13)b15-----(13)pb15-----|
|---------------------------------------------------|
|---------------------------------------------------|
|---------------------------------------------------|
|---------------------------------------------------|
|
|                                               PM---
|---------------------------------------------------|
|---------------------------------------------------|
|-----------0---------------------------------------|
|---------------------------------------------------|
|--5-------(5)-----------3s========0-0----------0-1-|
|--5-------(5)-----------3s========0-0----------0-1-|


|---------------------------------|---------------------|-------|
|---13------13------13------13----|---------------------|-------|
|---12b14---12b14---12b14---12b14-|-0---0-(0)-----------|-------|
|---------------------------------|-5---5-(5)-----------|-------|
|---------------------------------|-5---5-(5)-----------|-------|
|---------------------------------|-5---5-(5)-----------|-------|
|
|-|       PM      PM      PM
|---------------------------------|---------------------|-------|
|---------------------------------|---------------------|----5--|
|---------------------------------|---0-0---------------|----5--|
|---------------------------------|---5-5-(5)----(5)----|----5--|
|-3--3----3--3----3--3----3--3----|-5-5-5-(5)----(5)----|-------|
|-3--3----3--3----3--3----3--3----|-5-5-5-(5)----(5)----|-------|


Chorus:                               PM|
||------2------------|------0------------|--------------------|
||o-----3--3---------|---------3---------|------5-------------|
||------2------2-----|-------------0-----|------5-------------|
||--0---0------------|-------------------|--------------------|
||o-0------------3h5-|-0-------------0-2-|-3------------------|
||--0----------------|-------------------|--------------------|
|
|
||--2---2--2-2-2-----|-------------------|-0-0--0---0-0-0-0-0-|
||o-3---3--3-3-3-----|-------------------|-1-1--1---1-1-1-1-1-|
||--2---2--2-2-2-----|-2-2--2--2-2-2-----|-0-0--0---0-0-0-0-0-|
||--0---0--0-0-0-----|-2-2--2--2-2-2-----|-2-2--2---2-2-2-2-2-|
||o--------------3h5-|-0-0--0--0-0-0-0h2-|-3-3--3---3-3-3-3-3-|
||-------------------|-------------------|--------------------|


  PM      PM                       PM|
                    4x
|-------------------||-||----------------|
|------------------o||-||o---------------|
|-------------------||-||----------------|
|---5-------3--3----||-||----------------|
|-5-5-5-5-0-3--3---o||-||o-0--3-5--3-5-3-|
|-5-5-5-5-0-3--3----||-||--0--3-5--3-5-3-|
|
|                   4x
|-----3-3-----------||-||----------------|
|-----3-3----------o||-||o---------------|
|-----0-0-----------||-||----------------|
|-----0-0---3---3---||-||----------------|
|-----2-2---3---3--o||-||o---------------|
|-----3-3---1---1---||-||----------------|


          PM|                PM|
|------------------|---------------|-------------------||-|
|------------------|---------------|------------------o||-|
|------------------|---------------|-------------------||-|
|------------------|---------------|-------------------||-|
|-0--3-5--3-/5s3S5-|-0--3-5--3-5-3-|-/7-6-5-3-4-5-3---o||-|
|-0--3-5--3-/5s3S5-|-0--3-5--3-5-3-|-/7-6-5-3-4-5-3----||-|
|
|------------------|---------------|-------------------||-|
|------------------|---------------|------------------o||-|
|------------------|---------------|-------------------||-|
|------------------|---------------|-------------------||-|
|------------------|---------------|------------------o||-|
|------------------|---------------|-------------------||-|


|----------*|----|
|----------*|----|
|----------*|----|
|-0--------*|----|
|-0--------*|----|
|-0--------*|----|


Tablature Legend
----------------
 h   - hammer-on
 p   - pull-off
 b   - bend
 pb  - pre-bend
 r   - bend release (if no number after the r, then release immediately)
 /  - slide into or out of (from/to "nowhere")
 s   - legato slide
 S   - shift slide
  - natural harmonic
[n]  - artificial harmonic
n(n) - tapped harmonic
 ~   - vibrato
 tr  - trill
 T   - tap
 TP  - trem. picking
 PM  - palm muting

/  - tremolo bar dip; n = amount to dip
 
  - tremolo bar down
 n/  - tremolo bar up
/n  - tremolo bar inverted dip
 =   - hold bend; also acts as connecting device for hammers/pulls
 <>  - volume swell (louder/softer)
 x   - on rhythm slash represents muted slash
 o   - on rhythm slash represents single note slash

Misc Legend
-----------
 |  - bar
||  - double bar
||o - repeat start
o|| - repeat end
*|  - double bar (ending)
 :  - bar (freetime)
 $  - Segno
 &  - Coda
Tempo markers -  = BPM(8/16=s8/s16), where s8 = swing 8ths, s16 = swing 16ths


For more free tablature visit www.directTABS.com
Добавлено: 11.04.2012
Другие материалы по этой песне:
  • Аккорды и текст

Страница создана 10.03.2012
http://primanota.ru/pride-and-glory/troubled-wine-chords.htm
Привет, Гость.
Предлагаем пройти революционный курс по гитаре.
Подарок от PrimaNota.Ru, забирай!