PrimaNota.ru - самый крупный в мире бесплатный архив песенных текстов, аккордов, табулатур и нот


Pride And Glory - Lovin Woman - текст песни, таба, видео

Регистрация Запомнить меня
Войти через:  Facebook Google Twitter Vk Yandex Mail.ru

Pride And Glory - Lovin Woman - текст песни, таба, видео

Печатать
Просмотров: 125
LOVIN' WOMAN
Pride & Glory


Words and Music by Zakk Wylde
Arranged by Zakk Wylde

Gtr I (E A D G B E)



E||-------------------------||---------------------3--L--|
B||-------------------------||------1-----------3--------|
G||-------------------------||*--------0-----------------|
D||-------------------------||*--------------------------|
A||-------------------0h-2h-||---3--------2--L-----------|
E||-------------------------||---------------------------|


E|-----------2--L--L--L--------|--------------------3------|
B|-----0-----3--L--L--L--------|-----1-----------3-----/3--|
G|--------0--2--L--L--L--------|--------0---------------0--|
D|-----------0--L--L--L--------|-----------------------/4--|
A|-----------------------0h-2h-|--3--------2--L------------|
E|--3--------------------------|---------------------------|


E|-----0--0----------2--L--------||--------------------3----|
B|--L--3--3----------3--L--------||-----1--------------3----|
G|--L----------------2--L-------*||--------0--------0--0----|
D|--L--4--4s--2p--0--0--L-------*||--------------------0----|
A|-------------------------0h-2--||--3--------2--L-----2----|
E|-------------------------------||-------------------------|

  
E|--3--------2--2-----------|--------------------3----|-----------2--2-----------|
B|--3--3--3--3--3-----------|-----1--------------3----|--3--0-----3--3-----------|
G|--0--0--0--2--2-----------|--------0--------0--0----|--0-----0--2--2-----------|
D|--0--0--0--0--0-----------|--------------------0----|--0--------0--0-----------|
A|--2--2--2------------0h-2-|--3--------2--L-----2----|--2------------------0h-2-|
E|--3-----------------------|-------------------------|--------------------------|

  
E|--------------------3----|------------2--2-----------|-----------------3------|
B|-----1--------------3----|--/3--L--0--3--3-----------|--1--1--------3--3------|
G|--------0--------0--0----|------------2--2-----------|--0--------------0------|
D|--------------------0----|--/4--L-----0--0-----------|--2--------------0------|
A|--3--------2--L-----2----|----------------------0h-2-|--3-----3--2-----2------|
E|-------------------------|---------------------------|------------------------|

  
E|-------------2--------||-----------------------------|--3---3-3-3-3---3-3-3-3---3-|
B|--/3---------3--------||---1---1-1-1-1---1-1-1-1---1-|--3---3-3-3-3---3-3-3-3---3-|
G|---0----0----2--------||*--2---2-2-2-2---2-2-2-2---2-|--0---0-0-0-0---0-0-0-0---0-|
D|--/4----2----0--------||*--2---2-2-2-2---2-2-2-2---2-|--0---0-0-0-0---0-0-0-0---0-|
A|----------------------||---0---0-0-0-0---0-0-0-0---0-|--2---2-2-2-2---2-2-2-2---2-|
E|----------------------||-----------------------------|--3---3-3-3-3---3-3-3-3---3-|

                                                          3x
E|--2---2-2-2-2---2-2-2-2---2-|--3---3-3-3-2---2-2-2-2---2--||
B|--3---3-3-3-3---3-3-3-3---3-|--3---3-3-3-3---3-3-3-3---3--||
G|--2---2-2-2-2---2-2-2-2---2-|--2---2-2-2-2---2-2-2-2---2-*||
D|--0---0-0-0-0---0-0-0-0---0-|--0---0-0-0-0---0-0-0-0---0-*||
A|----------------------------|-----------------------------||
E|----------------------------|-----------------------------||

 
E|----------------------------|--3---3-3-3-3---3-3-3-3---3-|--3----------------|
B|--1---1-1-1-1---1-1-1-1---1-|--3---3-3-3-3---3-3-3-3---3-|--3----------------|
G|--2---2-2-2-2---2-2-2-2---2-|--0---0-0-0-0---0-0-0-0---0-|--0----------------|
D|--2---2-2-2-2---2-2-2-2---2-|--0---0-0-0-0---0-0-0-0---0-|--0----------------|
A|--0---0-0-0-0---0-0-0-0---0-|--2---2-2-2-2---2-2-2-2---2-|--2----------------|
E|----------------------------|--3---3-3-3-3---3-3-3-3---3-|--3----------------|


E|--2----------------|-------------------------|--------------------3--L--|
B|--3----------------|-------------------------|-----1-----------3--------|
G|--2----------------|-------------------------|--------0-----------------|
D|--0----------------|-------------------------|--------------------------|
A|-------------------|-------------------0h-2h-|--3--------2--L-----------|
E|-------------------|-------------------------|--------------------------|


E|-----------2--L--L--L--------|--------------------3------|
B|-----0-----3--L--L--L--------|-----1-----------3-----/3--|
G|--------0--2--L--L--L--------|--------0---------------0--|
D|-----------0--L--L--L--------|-----------------------/4--|
A|-----------------------0h-2h-|--3--------2--L------------|
E|--3--------------------------|---------------------------|


E|-----0--0----------2--L-------|--------------------3----|--3--------2--2-----------|
B|--L--3--3----------3--L-------|-----1--------------3----|--3--3--3--3--3-----------|
G|--L----------------2--L-------|--------0--------0--0----|--0--0--0--2--2-----------|
D|--L--4--4s--2p--0--0--L-------|--------------------0----|--0--0--0--0--0-----------|
A|-------------------------0h-2-|--3--------2--L-----2----|--2--2--2------------0h-2-|
E|------------------------------|-------------------------|--3-----------------------|

  
E|--------------------3----|-----------2--2-----------|--------------------3----|
B|-----1--------------3----|--3--0-----3--3-----------|-----1--------------3----|
G|--------0--------0--0----|--0-----0--2--2-----------|--------0--------0--0----|
D|--------------------0----|--0--------0--0-----------|--------------------0----|
A|--3--------2--L-----2----|--2------------------0h-2-|--3--------2--L-----2----|
E|-------------------------|--------------------------|-------------------------|

                                             ^                                    
E|------------2--2-----------|-----------------3------|-------------2--------|
B|--/3--L--0--3--3-----------|--1--1--------3--3------|--/3---------3--------|
G|------------2--2-----------|--0--------------0------|---0----0----2--------|
D|--/4--L-----0--0-----------|--2--------------0------|--/4----2----0--------|
A|----------------------0h-2-|--3-----3--2-----2------|----------------------|
E|---------------------------|------------------------|----------------------|


E|-----------------------------|--3---3-3-3-3---3-3-3-3---3-|
B|---1---1-1-1-1---1-1-1-1---1-|--3---3-3-3-3---3-3-3-3---3-|
G|*--2---2-2-2-2---2-2-2-2---2-|--0---0-0-0-0---0-0-0-0---0-|
D|*--2---2-2-2-2---2-2-2-2---2-|--0---0-0-0-0---0-0-0-0---0-|
A|---0---0-0-0-0---0-0-0-0---0-|--2---2-2-2-2---2-2-2-2---2-|
A|-----------------------------|--3---3-3-3-3---3-3-3-3---3-|


E|--2---2-2-2-2---2-2-2-2---2-|--3---3-3-3-2---2-2-2-2---2--||
B|--3---3-3-3-3---3-3-3-3---3-|--3---3-3-3-3---3-3-3-3---3--||
G|--2---2-2-2-2---2-2-2-2---2-|--2---2-2-2-2---2-2-2-2---2-*||
D|--0---0-0-0-0---0-0-0-0---0-|--0---0-0-0-0---0-0-0-0---0-*||
A|----------------------------|-----------------------------||
E|----------------------------|-----------------------------||


E|----------------------------|--3---3-3-3-3---3-3-3-3---3-|
B|--1---1-1-1-1---1-1-1-1---1-|--3---3-3-3-3---3-3-3-3---3-|
G|--2---2-2-2-2---2-2-2-2---2-|--0---0-0-0-0---0-0-0-0---0-|
D|--2---2-2-2-2---2-2-2-2---2-|--0---0-0-0-0---0-0-0-0---0-|
A|--0---0-0-0-0---0-0-0-0---0-|--2---2-2-2-2---2-2-2-2---2-|
E|----------------------------|--3---3-3-3-3---3-3-3-3---3-|


E|--3---3-3-3-3---3-3-3-3---3-|--2---2-2-2-2---2-2-2-2---2-|
B|--3---3-3-3-3---3-3-3-3---3-|--3---3-3-3-3---3-3-3-3---3-|
G|--0---0-0-0-0---0-0-0-0---0-|--2---2-2-2-2---2-2-2-2---2-|
D|--0---0-0-0-0---0-0-0-0---0-|--0---0-0-0-0---0-0-0-0---0-|
A|--2---2-2-2-2---2-2-2-2---2-|----------------------------|
E|--3---3-3-3-3---3-3-3-3---3-|----------------------------|


E|----------------------------|--3---3-3-3-3---3-3-3-3---3-|
B|--1---1-1-1-1---1-1-1-1---1-|--3---3-3-3-3---3-3-3-3---3-|
G|--2---2-2-2-2---2-2-2-2---2-|--0---0-0-0-0---0-0-0-0---0-|
D|--2---2-2-2-2---2-2-2-2---2-|--0---0-0-0-0---0-0-0-0---0-|
A|--0---0-0-0-0---0-0-0-0---0-|--2---2-2-2-2---2-2-2-2---2-|
E|----------------------------|--3---3-3-3-3---3-3-3-3---3-|


E|--3---3-3-3-3---3-3-3-3---3-|--2---2-2-2-2---2-2-2-2---2-|
B|--3---3-3-3-3---3-3-3-3---3-|--3---3-3-3-3---3-3-3-3---3-|
G|--0---0-0-0-0---0-0-0-0---0-|--2---2-2-2-2---2-2-2-2---2-|
D|--0---0-0-0-0---0-0-0-0---0-|--0---0-0-0-0---0-0-0-0---0-|
A|--2---2-2-2-2---2-2-2-2---2-|----------------------------|
E|--3---3-3-3-3---3-3-3-3---3-|----------------------------|


E|----------------------------|--3---3-3-3-3---3-3-3-3---3-|
B|--1---1-1-1-1---1-1-1-1---1-|--3---3-3-3-3---3-3-3-3---3-|
G|--2---2-2-2-2---2-2-2-2---2-|--0---0-0-0-0---0-0-0-0---0-|
D|--2---2-2-2-2---2-2-2-2---2-|--0---0-0-0-0---0-0-0-0---0-|
A|--0---0-0-0-0---0-0-0-0---0-|--2---2-2-2-2---2-2-2-2---2-|
E|----------------------------|--3---3-3-3-3---3-3-3-3---3-|


E|--3---3-3-3-3---3-3-3-3---3-|--2---2-2-2-2---2-2-2-2---2-|
B|--3---3-3-3-3---3-3-3-3---3-|--3---3-3-3-3---3-3-3-3---3-|
G|--0---0-0-0-0---0-0-0-0---0-|--2---2-2-2-2---2-2-2-2---2-|
D|--0---0-0-0-0---0-0-0-0---0-|--0---0-0-0-0---0-0-0-0---0-|
A|--2---2-2-2-2---2-2-2-2---2-|----------------------------|
E|--3---3-3-3-3---3-3-3-3---3-|----------------------------|


E|----------------------------|--3---3-3-3-3---3-3-3-3---3-|
B|--1---1-1-1-1---1-1-1-1---1-|--3---3-3-3-3---3-3-3-3---3-|
G|--2---2-2-2-2---2-2-2-2---2-|--0---0-0-0-0---0-0-0-0---0-|
D|--2---2-2-2-2---2-2-2-2---2-|--0---0-0-0-0---0-0-0-0---0-|
A|--0---0-0-0-0---0-0-0-0---0-|--2---2-2-2-2---2-2-2-2---2-|
E|----------------------------|--3---3-3-3-3---3-3-3-3---3-|


E|--3---3-3-3-3---3-3-3-3---3-|--2---2-2-2-2---2-2-2-2---2-|
B|--3---3-3-3-3---3-3-3-3---3-|--3---3-3-3-3---3-3-3-3---3-|
G|--0---0-0-0-0---0-0-0-0---0-|--2---2-2-2-2---2-2-2-2---2-|
D|--0---0-0-0-0---0-0-0-0---0-|--0---0-0-0-0---0-0-0-0---0-|
A|--2---2-2-2-2---2-2-2-2---2-|----------------------------|
E|--3---3-3-3-3---3-3-3-3---3-|----------------------------|


E|----------------------------|--3---3-3-3-3---3-3-3-3---3-|
B|--1---1-1-1-1---1-1-1-1---1-|--3---3-3-3-3---3-3-3-3---3-|
G|--2---2-2-2-2---2-2-2-2---2-|--0---0-0-0-0---0-0-0-0---0-|
D|--2---2-2-2-2---2-2-2-2---2-|--0---0-0-0-0---0-0-0-0---0-|
A|--0---0-0-0-0---0-0-0-0---0-|--2---2-2-2-2---2-2-2-2---2-|
E|----------------------------|--3---3-3-3-3---3-3-3-3---3-|

             
E|--3---3-3-3-3---3-3-3-3---3-|-----0--------0-----3----|--L----------------|
B|--3---3-3-3-3---3-3-3-3---3-|--------3--------3--3----|--L----------------|
G|--0---0-0-0-0---0-0-0-0---0-|--------------------0----|--L----------------|
D|--0---0-0-0-0---0-0-0-0---0-|--0-----------------0----|--L----------------|
A|--2---2-2-2-2---2-2-2-2---2-|-----------3--------2----|--L----------------|
E|--3---3-3-3-3---3-3-3-3---3-|--------------------3----|--L----------------|


E|-----0--------0----------|-------------------|-----0--------0----------|
B|--------3--------3--3----|--L----------------|--------3--------3--3----|
G|--------------------0----|--L----------------|--------------------0----|
D|--0-----------------0----|--L----------------|--0----------------------|
A|-----------3--------2----|--L----------------|-----------3-------------|
E|-------------------------|-------------------|--------------------3----|


E|-------------------|--2-----------3--3----|--3--3--3--3--3--3--3--3--|
B|--L----------------|--3------1----3--3----|--3--3--3--3--3--3--3--3--|
G|--L----------------|--2------0----0--0----|--0--0--0--0--0--0--0--0--|
D|-------------------|--0------2----0--0----|--0--0--0--0--0--0--0--0--|
A|-------------------|---------3----2--2----|--2--2--2--2--2--2--2--2--|
E|--L----------------|--------------3--3----|--3--3--3--3--3--3--3--3--|


E|--3--3--3--3--3--3--3--3--||-----------------------------|
B|--3--3--3--3--3--3--3--3--||---1---1-1-1-1---1-1-1-1---1-|
G|--0--0--0--0--0--0--0--0--||*--2---2-2-2-2---2-2-2-2---2-|
D|--0--0--0--0--0--0--0--0--||*--2---2-2-2-2---2-2-2-2---2-|
A|--2--2--2--2--2--2--2--2--||---0---0-0-0-0---0-0-0-0---0-|
E|--3--3--3--3--3--3--3--3--||-----------------------------|


E|--3---3-3-3-3---3-3-3-3---3-|--2---2-2-2-2---2-2-2-2---2-|
B|--3---3-3-3-3---3-3-3-3---3-|--3---3-3-3-3---3-3-3-3---3-|
G|--0---0-0-0-0---0-0-0-0---0-|--2---2-2-2-2---2-2-2-2---2-|
D|--0---0-0-0-0---0-0-0-0---0-|--0---0-0-0-0---0-0-0-0---0-|
A|--2---2-2-2-2---2-2-2-2---2-|----------------------------|
E|--3---3-3-3-3---3-3-3-3---3-|----------------------------|


E|--3---3-3-3-2---2-2-2-2---2--||----------------------------|
B|--3---3-3-3-3---3-3-3-3---3--||--1---1-1-1-1---1-1-1-1---1-|
G|--2---2-2-2-2---2-2-2-2---2-*||--2---2-2-2-2---2-2-2-2---2-|
D|--0---0-0-0-0---0-0-0-0---0-*||--2---2-2-2-2---2-2-2-2---2-|
A|-----------------------------||--0---0-0-0-0---0-0-0-0---0-|
E|-----------------------------||----------------------------|


E|--3---3-3-3-3---3-3-3-3---3-|--3---3-3-3-3---3-3-3-3---3-||-----------3--3--3--2----|
B|--3---3-3-3-3---3-3-3-3---3-|--3---3-3-3-3---3-3-3-3---3-||---1----1--3--3--3--3----|
G|--0---0-0-0-0---0-0-0-0---0-|--0---0-0-0-0---0-0-0-0---0-||*--0----0--0--0--0--2----|
D|--0---0-0-0-0---0-0-0-0---0-|--0---0-0-0-0---0-0-0-0---0-||*--2----2--0--0--0--0----|
A|--2---2-2-2-2---2-2-2-2---2-|--2---2-2-2-2---2-2-2-2---2-||---3----3--2--2--2-------|
E|--3---3-3-3-3---3-3-3-3---3-|--3---3-3-3-3---3-3-3-3---3-||-----------3--3--3-------|

                           3x
E|--2--2--2--2--2--2--2--2---||----------------------------|
B|--3--3--3--3--3--3--3--3---||--1---1-1-1-1---1-1-1-1---1-|
G|--2--2--2--2--2--2--2--2--*||--0---0-0-0-0---0-0-0-0---0-|
D|--0--0--0--0--0--0--0--0--*||--2---2-2-2-2---2-2-2-2---2-|
A|---------------------------||--3---3-3-3-3---3-3-3-3---3-|
E|---------------------------||----------------------------|

                                                            ^  
E|----------------------------|--3---3-3-3-3---3-3-3-3---3-|--2----------------||
B|--1---1-1-1-1---1-1-1-1---1-|--3---3-3-3-3---3-3-3-3---3-|--3----------------||
G|--0---0-0-0-0---0-0-0-0---0-|--0---0-0-0-0---0-0-0-0---0-|--2----------------||
D|--2---2-2-2-2---2-2-2-2---2-|--0---0-0-0-0---0-0-0-0---0-|--0----------------||
A|--3---3-3-3-3---3-3-3-3---3-|--2---2-2-2-2---2-2-2-2---2-|-------------------||
E|----------------------------|--3---3-3-3-3---3-3-3-3---3-|-------------------||


Tablature Legend
----------------
L - tied note
x - dead note
g - grace note
(n) - ghost note
> - accentuded note
NH - natural harmonic
AH - artificial harmonic
TH - tapped harmonic
SH - semi harmonic
PH - pitch harmonic
h - hammer on
p - pull off
b - bend
br - bendRelease
pb - preBend
pbr - preBendRelease
brb - bendReleaseBend
\n/ - tremolo bar dip
\n - tremolo bar dive
-/n - tremolo bar Release up
/n\ - tremolo bar inverted dip
/n - tremolo bar return
-\n - tremolo bar Release down
S - shift slide
s - legato slide
/ -  slide into from below or out of upwards
\ -  slide into from above or out of downwards
~ - vibrato
W - wide vibrato
tr - trill
TP - tremolo picking
T - tapping
S - slap
P - pop
< - fade in
^ - brush up
v - brush down
Добавлено: 02.06.2012
Другие материалы по этой песне:

Страница создана 12.03.2012
http://primanota.ru/pride-and-glory/lovin-woman-chords.htm
Привет, Гость.
Предлагаем пройти революционный курс по гитаре.
Подарок от PrimaNota.Ru, забирай!