PrimaNota.ru - самый крупный в мире бесплатный архив песенных текстов, аккордов, табулатур и нот


Pretty Lights - Yellow Bird - таба, видео

Регистрация Запомнить меня
Войти через:  Facebook Google Twitter Vk Yandex Mail.ru

Pretty Lights - Yellow Bird - таба, видео

Печатать
Просмотров: 97
-------------------------------------------------------------------------------
                             YELLOW BIRD - PRETTY LIGHTS
-------------------------------------------------------------------------------
Tabbed by: Tyler Bowles
E-mail: Tibblesnbits513@yahoo.com

Tuning: standard
   Chords
    A      E
e|--9------12---------12/----------------------------------------------------|
B|--10-----12---------------------12h14-12h14-12h14-12h14-12-----------------|
G|--9------13-------------------------------OR-------------------------------|
D|--11-----14---------------------7h9-7h9-7h9-7h9-7--------------------------|
A|--12-----14----------------------------------------------------------------|
E|--x------12----------------------------------------------------------------|
    Main Riff
e|---------16--14--12--14----------------------------------------------------|
B|-----14------------------16~-------12h16--12h16--14------------------------|
G|--14---------------------------13------------------------------------------|
D|---------------------------------------------------------------------------|
A|---------------------------------------------------------------------------|
E|---------------------------------------------------------------------------|
   Fill
e|---------------------------------------------------------------------------|
B|--12--14--14/16-14h16-14---------------------------------------------------|
G|---------------------------------------------------------------------------|
D|---------------------------------------------------------------------------|
A|---------------------------------------------------------------------------|
E|---------------------------------------------------------------------------|
   Bass
e|-------------------|
B|-------------------|
G|-------------------|
D|-------------------|
A|-------777-777-----|
E|--0-0--------------|
 Yes the bass root is E when the guitar plays A

 Haven't quite got the solo in the middle but its something like this

e|--/16--14--12---------------------------16--18--20--21---------------------|
B|---------------16--12--14--14h16-14h16-------------------------------------|
G|---------------------------------------------------------------------------|
D|---------------------------------------------------------------------------|
A|---------------------------------------------------------------------------|
E|---------------------------------------------------------------------------|

************************************

| /   slide up
| \   slide down
| h   hammer-on
| p   pull-off
| ~   vibrato
| +   harmonic
| x   Mute note
| b   Bend
| pb  Pre-bend
| br  Bend release
| pbr Pre-bend release
| brb Bend release bend

************************************
Добавлено: 14.11.2015
Другие материалы по этой песне:
  • Аккорды и текст

Страница создана 14.11.2015
http://primanota.ru/pretty-lights/yellow-bird-chords.htm
Привет, Гость.
Предлагаем пройти революционный курс по гитаре.
Подарок от PrimaNota.Ru, забирай!