PrimaNota.ru - самый крупный в мире бесплатный архив песенных текстов, аккордов, табулатур и нот


Pretty Lights - Somethings Wrong - таба, видео

Регистрация Запомнить меня
Войти через:  Facebook Google Twitter Vk Yandex Mail.ru

Pretty Lights - Somethings Wrong - таба, видео

Печатать
Просмотров: 93
Stave 1:

E|-----------------------------------------------------------------|
B|------------------11----------11---------------------------------|
G|--------------11------11-------------11--------------------------|
D|----------13--------------13-------------13------13------11--13--|
A|------13-------------------------------------13------13----------|
E|--11------------------------------9------------------------------|

Stave 2:

E|----------------------------------------------------------------|
B|-----------------11----------11---------------------------------|
G|-------------11------11-------------11--------------------------|
D|---------13--------------13-------------13------13------11--13--|
A|-----13-------------------------------------13------13----------|
E|--8------------------------------7------------------------------|

repeats throughout entire song
Добавлено: 14.11.2015
Вам также может быть интересно:
Другие материалы по этой песне:
  • Аккорды и текст

Страница создана 14.11.2015
http://primanota.ru/pretty-lights/somethings-wrong-chords.htm
Привет, Гость.
Предлагаем пройти революционный курс по гитаре.
Подарок от PrimaNota.Ru, забирай!