PrimaNota.ru - самый крупный в мире бесплатный архив песенных текстов, аккордов, табулатур и нот


Pretty Lights - Fill Your Eyes - бас-таба, видео

Регистрация Запомнить меня
Войти через:  Facebook Google Twitter Vk Yandex Mail.ru

Pretty Lights - Fill Your Eyes - бас-таба, видео

Печатать
Просмотров: 112
Авторы музыки: Derek Vincent Smith

-------------------------------------------------------------------------------
                             FILL YOUR EYES - PRETTY LIGHTS
-------------------------------------------------------------------------------
Tabbed by: Tyler Bowles
E-mail: tibblesnbits513@yahoo.com

Tuning: standard

G|----------7-7----------7-7--5-----5--------------------7-7---------5h7-5h7p-5---5h7--|
D|-----5h7----------5h7----------7----7--5-----------5h7------------------------7------|
A|--5------------5--------------------------8-(7)--5------------5-5--------------------|
E|-------------------------------------------------------------------------------------|

G|----------7-7----------7-7--5-----5----------7-7-------5h7-5h7p-5---5h7-----|
D|-----5h7----------5h7----------7---------5h7----------------------7---------|
A|--5------------5----------------------5-----------5-5-----------------------|
E|----------------------------------------------------------------------------|

G|---------7-7--5---5h7---------7-7--5---5----|
D|-----5h7--------7---------5h7--------7------|
A|--5--------------------5--------------------|
E|--------------------------------------------|

G|---------7-7--5----5------------------7-7--5---5----|
D|-----5h7--------7-----7--5--------5h7--------7------|
A|--5-------------------------8--5--------------------|
E|----------------------------------------------------|

G|--10-----9-----7-----5----|
D|------7-----5-----3-------|
A|--------------------------|
E|--------------------------|

G|-----5h7-5h7p--5---5h7--------7-7--5---5-----5h7-5h7p--5---5h7---------7---7---7---|
D|-----------------7--------5h7--------7-------------------7-------------------------|
A|--5---------------------5-----------------5---------------------5-5-5----5---5-----|
E|-----------------------------------------------------------------------------------|

G|----------------5h7-5h7p--5---5-------------------5h7-5h7p--5-----------------|
D|--------7-7-----------------7---7---------7-7---------------------7-----------|
A|----5h7------5-----------------------5h7-------5---------------5-----7--------|
E|--5--------------------------------5------------------------------------5-----|

G|---------7-7--5---5h7--------------------------9-9--7---7h9--10---9---7---5---|
D|----5h7---------7------------7-7--5---5----7h9--------9---------7---5---3-----|
A|--5----------------------5h7--------7----7------------------------------------|
E|-----------------------5------------------------------------------------------|

G|--------------------------------------------------------------------------|
D|--------------------------------------------------------------------------|
A|--5-5-5-5-5-5-5-5-5-----------------7-7-7-7-7-7-7-7--8-8-8-8-8-8-8-8------|
E|--------------------5-5-5-5-5-5-5-5---------------------------------------|


| /  slide up
| \  slide down
| h  hammer-on
| p  pull-off
| ~  vibrato
| +  harmonic
| x  Mute note
===============================================================================
Добавлено: 14.11.2015
Другие материалы по этой песне:
  • Аккорды и текст

Страница создана 14.11.2015
http://primanota.ru/pretty-lights/fill-your-eyes-chords.htm
Привет, Гость.
Предлагаем пройти революционный курс по гитаре.
Подарок от PrimaNota.Ru, забирай!