PrimaNota.ru - самый крупный в мире бесплатный архив песенных текстов, аккордов, табулатур и нот


Pretty Girls Make Graves - Something Bigger Something Brighter - текст песни, таба, видео

Регистрация Запомнить меня
Войти через:  Facebook Google Twitter Vk Yandex Mail.ru

Pretty Girls Make Graves - Something Bigger Something Brighter - текст песни, таба, видео

Печатать
Просмотров: 66
Уроки эстрадного вокала в Санкт-Петербурге
Artist: Pretty Girls Make Graves
Song: Something Bigger, Something Brighter
Album: The New Romance
Tabbed by: luke@notus.com

Standard Tuning E A D G B E

  intro
e|--0---0---0---0-|-0---0---0---0-|-0---0---0---0-|--0----0----0----0----|
B|---1---1---1---1|--6---6---6---6|--5---5---5---4|---12---12---12---12--|
G|-2---2---2---2--|7---7---7---7--|5---5---4---0--|14---14---13---13-----|
D|----------------|---------------|---------------|----------------------|
A|----------------|---------------|---------------|----------------------|
E|----------------|---------------|---------------|----------------------|

  |--0-----0-----0-----0--|--0-----0-----0-----0--|-----------------------|
  |---15----15----15----15|---15----15----15----15|-----------------------|
  |17----17----17----17---|16----16----16----16---|--------REPEAT---------|
  |-----------------------|-----------------------|-----------------------|
  |-----------------------|-----------------------|-----------------------|
  |-----------------------|-----------------------|-----------------------|

  loud part (played along with synthesizer)
e|-----------------------------------------------------------------------|
B|-----------------------------------------------------------------------|
G|-----------------------------------------------------------------------|
D|-----------------------------------------------------------------------|
A|-------------------3-3-3-3/5-5-5-------------------3-3-3-3/5-5-5-------|
E|-5-5-5-5-5-5-5-5-5---------------3-3-3-3-3-3-3-3-3---------------------|

  Really dig into the notes here...



  awesome over-effected guitar interlude
e|-----------------------------------------------------------------------|
B|-10-10--10-10--10/10-10-10-10-10---------------------------------------|
G|--7--9---9/10---9/-9-10--9--9--7---------------------------------------|
D|--7--7---7--7---7/-7--7--7--7--7---------------------------------------|
A|-----------------------------------------------------------------------|
E|-----------------------------------------------------------------------|

  lick #1
e|-----------------------------------------------------------------------|
B|-----------------------------------------------------------------------|
G|-----------------------------------------------------------------------|
D|---------7-------------------------------------------------------------|
A|-3/5\3/5---5\3/5\3---------------------3gb--------3333-33-3------------|
E|--------------------5p3-5p3-5------------------------------------------|
                                          ^ this is a very slow bend
                                            through the decaying note

Should be more than enough to get you started...


This is all my own original work.
Comments/questions/corrections can be sent to luke@notus.com

     
Добавлено: 23.06.2013
Другие материалы по этой песне:

Страница создана 06.05.2012
http://primanota.ru/pretty-girls-make-graves/something-bigger-something-brighter-chords.htm
Привет, Гость.
Предлагаем пройти революционный курс по гитаре.
Подарок от PrimaNota.Ru, забирай!