PrimaNota.ru - самый крупный в мире бесплатный архив песенных текстов, аккордов, табулатур и нот


Pretty Girls Make Graves - Modern Day Emma Goldman - текст песни, таба, видео

Регистрация Запомнить меня
Войти через:  Facebook Google Twitter Vk Yandex Mail.ru

Pretty Girls Make Graves - Modern Day Emma Goldman - текст песни, таба, видео

Печатать
Просмотров: 119
Уроки эстрадного вокала в Санкт-Петербурге
------------------------------------------------------------------------------
                 Modern Day Emma Goldman - Pretty Girls Make Graves
------------------------------------------------------------------------------

Intro/chorus/outro
Guitars 1&2
1st & 2nd bar
e|---------------------------------------------------------------------------|
B|---------------------------------------------------------------------------|
G|--666666-6--777777-7----------------9999-----------------------------------|
D|--666666-6--777777-7--777777-7-7777-9999-----------------------------------|
A|--444444-4--555555-5--777777-7-7777-7777-----------------------------------|
E|----------------------555555-5-5555----------------------------------------|

3rd bar
|---------------------------------------------------------------------------|
|--bbbbbb-bbbbbb-bbbbbbbbbbbbbbbbbbbbbbbb-----------------------------------|
|--666666/777777/141414141414141414141414-----------------------------------|
|---------------------------------------------------------------------------|
|--444444/555555/121212121212121212121212-----------------------------------|
|---------------------------------------------------------------------------|

4th bar
e|---------------------------------------------------------------------------|
B|---------------------------------------------------------------------------|
G|--666666-6--777777-7-------------------------------------------------------|
D|--666666-6--777777-7--777777-7-7777-7777-----7-----------------------------|
A|--444444-4--555555-5--777777-7-7777-7777-----7-----------------------------|
E|----------------------555555-5-5555-5555-----5-----------------------------|

Verse 1
(bass)
G|-----------------------|
D|-----------------------|
A|----4-------4-------4--|
D|--5---55-55---55-55----| etc

Pre-chorus
Guitars 1&2
e|---------------------------------------------------------------------------|
B|---------------------------------------------------------------------------|
G|---------------------------------------------------------------------------|
D|--11b-7p0-5p0-0-4p0-0-4p0-4h5p0--------------------------------------------|
A|---------------------------------------------------------------------------|
D|---------------------------------------------------------------------------|

|---------------|
|---------------|
|---------------|
|------7--------|
|------7--------|
|------5--------|

Verse 2
Guitar 1
(1st bar)
e|--b------------------------------------------------------------------------|
B|--14----15p14-------15p14-------15p14-------15p14-------15p14--------------|
G|--------------14s12-------14s12-------14s11-------14s11--------------------|
D|--------------------------------------------------------------7-7-7-7------|
A|--------------------------------------------------------------7-7-7-7------|
D|--------------------------------------------------------------5-5-5-5------|

(2nd, 3rd & 4th bar)
e|---------------------------------------------------------------------------|
B|--15p14-------15p14-------15p14-------15p14-------15p14-------15p14--------|
G|--------14s12-------14s11-------14s11-------14s10-------14s10-------7-7-7-7|
D|--------------------------------------------------------------------7-7-7-7|
A|--------------------------------------------------------------------7-7-7-7|
D|--------------------------------------------------------------------5-5-5-5|

Guitar 2
(1st bar)
e|---------------------------------------------------------------------------|
B|--15p14-------------15/14-------------15p14-------------15p14--------------|
G|--------14/12-12/14-------14/12-12/14-------14/11-11/14-------14/11-11/14--|
D|---------------------------------------------------------------------------|
A|---------------------------------------------------------------------------|
D|---------------------------------------------------------------------------|

e|---------------------------------------------------------------------------|
B|--15p14--------------------------------------------------------------------|
G|---------------------------------------------------------------------------|
D|--------7-7-7-7------------------------------------------------------------|
A|--------7-7-7-7------------------------------------------------------------|
D|--------5-5-5-5------------------------------------------------------------|

(2nd, 3rd & 4th bar)
e|---------------------------------------------------------------------------|
B|--15p14-------------15p14-------------15p15-------------15p14--------------|
G|--------14/12-12/14-------14/11-11/14-------14/11-11/14-------14/10-10/14--|
D|---------------------------------------------------------------------------|
A|---------------------------------------------------------------------------|
D|---------------------------------------------------------------------------|

e|---------------------------------------------------------------------------|
B|--15p14-------------15p14--------------------------------------------------|
G|--------14/10-10/14--------------------------------------------------------|
D|--------------------------7-7-7-7------------------------------------------|
A|--------------------------7-7-7-7------------------------------------------|
D|--------------------------5-5-5-5------------------------------------------|
Добавлено: 06.07.2012
Другие материалы по этой песне:
  • Аккорды и текст

Страница создана 06.07.2012
http://primanota.ru/pretty-girls-make-graves/modern-day-emma-goldman-chords.htm
Привет, Гость.
Предлагаем пройти революционный курс по гитаре.
Подарок от PrimaNota.Ru, забирай!