PrimaNota.ru - самый крупный в мире бесплатный архив песенных текстов, аккордов, табулатур и нот


Pretty Girls Make Graves - If You Hate Your Friends You Are Not Alone - таба, видео

Регистрация Запомнить меня
Войти через:  Facebook Google Twitter Vk Yandex Mail.ru

Pretty Girls Make Graves - If You Hate Your Friends You Are Not Alone - таба, видео

Печатать
Просмотров: 108
-------------------------------------------------------------------------------
        If You Hate Your Friends YOu're Not Alone - Pretty Girls Make Graves
-------------------------------------------------------------------------------

Intro Guitar 1 part one
e|---------------------------5h7p5p0-----------------------------------------|
B|--5p3-5p3-5p3-5p3-5p3-5p3--------------------------------------------------|
G|---------------------------------------------------------------------------|
D|---------------------------------------------------------------------------|
A|---------------------------------------------------------------------------|
E|---------------------------------------------------------------------------|

Intro Guitar 1 part two
e|--7p0--5p0--3p0--2p0-------------------------------------------------------|
B|----------------------3h5p3--3s5s3-----------------------------------------|
G|---------------------------------------------------------------------------|
D|---------------------------------------------------------------------------|
A|---------------------------------------------------------------------------|
E|---------------------------------------------------------------------------|

Verse Guitar 1
e|---------------------------------------------------------------------------|
B|---------------------------------------------------------------------------|
G|----------------2p0--0h4--4p0---2h4p0--------------------------------------|
D|---------------------------------------2p0---------------------------------|
A|------2p0--0h3-------------------------------------------------------------|
E|--0h3----------------------------------------------------------------------|

Verse Guitar 2
e|---------------------------------------------------------------------------|
B|---------------------------------------------------------------------------|
G|--b-------b--------b-------------------------------------------------------|
D|--14---14-12----12-14----14--b---------------------------------------------|
A|-----------------------------12---/----------------------------------------|
E|---------------------------------------------------------------------------|

Chorus
|---------------------------------------------------------------------------|
|--5p3-5p3-12p10-12p10-5p3-5p3-12p10-12p10-5p3-5p3---------5p3-5p3----------|
|--------------------------------------------------4p2-4p2---------4p2-4p2--|
|---------------------------------------------------------------------------|
|---------------------------------------------------------------------------|
|---------------------------------------------------------------------------|

|-------------------------------------------12-------14---------------------|
|--5p3-5p3-12p10-12p10-5p3-5p3-12p10-12p10-----10----------8h10p8-----------|
|-------------------------------------------------12----12------------------|
|---------------------------------------------------------------------------|
|---------------------------------------------------------------------------|
|---------------------------------------------------------------------------|

Bridge
e|---------------------------------------------------------------------------|
B|---------------------------------------------------------------------------|
G|-/9--------------9------------9--------------------------------------------|
D|-/5--------------5------------5-9------------------------------------------|
A|--------------------------------5------------------------------------------|
E|---------------------------------------------------------------------------|

e|---------------------------------------------------------------------------|
B|---------------------------------------------------------------------------|
G|--99--999-999--99999-------------------------------------------------------|
D|--55--555-555--55555--99--999-999--99999-----------------------------------|
A|----------------------55--555-555--55555-----------------------------------|
E|---------------------------------------------------------------------------|
Добавлено: 24.06.2012
Другие материалы по этой песне:
  • Аккорды и текст

Страница создана 09.05.2012
http://primanota.ru/pretty-girls-make-graves/if-you-hate-your-friends-you-are-not-alone-chords.htm
Привет, Гость.
Предлагаем пройти революционный курс по гитаре.
Подарок от PrimaNota.Ru, забирай!