PrimaNota.ru - самый крупный в мире бесплатный архив песенных текстов, аккордов, табулатур и нот


Pretty Girls Make Graves - Head South - текст песни, бас-таба, видео

Регистрация Запомнить меня
Войти через:  Facebook Google Twitter Vk Yandex Mail.ru

Pretty Girls Make Graves - Head South - текст песни, бас-таба, видео

Печатать
Просмотров: 181
Новый альбом группы 'Черный Кузнец' по культовому сериалу 'Сверхъестественное'!
Band: Pretty Girls Make Graves
Song: Head South
Album: Pretty Girls Make Graves
Tabbed by: choke383
Normal Tuning: GDAE


0:11
G|----5-------------5-------------5-------------5-----|
D|4-44-4-5555---4-44-4-5555---4-44-4-5555---4-44-4-5--|
A|------------55------------55------------55----------|
E|----------------------------------------------------|


0:21  «walking away again»
G|----5-------------5-------------5-------------5----------------|
D|4-44-4-5555---4-44-4-5555---4-44-4-5555---4-44-4-555555555555--|
A|------------55------------55------------55---------------------|
E|---------------------------------------------------------------|


0:31   «but hey, you don't see me»
G|-----------------------------------------------------------------|
D|44444444555577774444444455557777------------2--------------------|
A|--------------------------------333333333333--3-222222222222000--|
E|-----------------------------------------------------------------|

G|-----------------------------------------------------------------|
D|44444444555577774444444455557777------------2--------------------|
A|--------------------------------333333333333--3-222222222222222--|
E|-----------------------------------------------------------------|


0:51
G|---------------------------|
D|5-4-5-4-5-4-5-4-5-4-5-4-5--|
A|---------------------------|
E|---------------------------|


0:56   «you can just keep on walking»
G|----5-------------5-------------5-------------5-----|
D|4-44-4-5555---4-44-4-5555---4-44-4-5555---4-44-4-5--|
A|------------55------------55------------55----------|
E|----------------------------------------------------|


1:06
G|----5-------------5-------------5-------------5----------------|
D|4-44-4-5555---4-44-4-5555---4-44-4-5555---4-44-4-555555555555--|
A|------------55------------55------------55---------------------|
E|---------------------------------------------------------------|


1:16
G|-----------------------------------------------------------------|
D|44444444555577774444444455557777------------2--------------------|
A|--------------------------------333333333333--3-222222222222000--|
E|-----------------------------------------------------------------|x2


1:36   «you think im happy with the lies that you feed me»
G|---------------|
D|-4--4----4--4--|
A|5--5--5-5--5---|
E|---------------|x6


1:51
G|-----------------------------------------------|
D|3-3-22222----------------------0000000000000---|
A|----------3-3-22222-1-1-00000------------------|
E|-----------------------------------------------|


2:01   «nooo, nooo»
G|-------------------------------------------------------------|
D|-------------------------------------------------------------|
A|-------5-55-55-2-2-22-3-33-33------------------------333333--|
E|0-0-00------------------------0-0-00-2-22-22-3-3-33----------|x4


2:40
G|-----------------------------------------------------------------|
D|44444444555577774444444455557777------------2--------------------|
A|--------------------------------333333333333--3-222222222222000--|
E|-----------------------------------------------------------------|

G|-----------------------------------------------------------------|
D|44444444555577774444444455557777------------2--------------------|
A|--------------------------------333333333333--3-222222222222222--|
E|-----------------------------------------------------------------|


2:59
G|-----------------------------------|
D|5-4-5-4-5-4-5-4-5-4-5-4-5-4-5-4-5--|
A|-----------------------------------|
E|-----------------------------------|



Any comments, questions or jokes send to style444@hotmail.com
Добавлено: 26.02.2012
Другие материалы по этой песне:
  • Аккорды и текст

Страница создана 26.02.2012
http://primanota.ru/pretty-girls-make-graves/head-south-chords.htm
Привет, Гость.
Предлагаем пройти революционный курс по гитаре.
Подарок от PrimaNota.Ru, забирай!