PrimaNota.ru - самый крупный в мире бесплатный архив песенных текстов, аккордов, табулатур и нот


Pretty Girls Make Graves - Grandmother Wolf - текст песни, бас-таба, видео

Регистрация Запомнить меня
Войти через:  Facebook Google Twitter Vk Yandex Mail.ru

Pretty Girls Make Graves - Grandmother Wolf - текст песни, бас-таба, видео

Печатать
Просмотров: 174
Новый альбом группы 'Черный Кузнец' по культовому сериалу 'Сверхъестественное'!
Intro/main riff (0:00 to 0:13)
G|-----------------------------------------|
D|10h12-12-0-0-0-10h12-12-0-0-12-10-12--12-|
A|------------------------------------10---|
E|-----------------------------------------|

Pre Verse (0:13 to 0:25
G|-----------------|
D|10----9----5----7|
A|-----------------|
E|-----------------|

Verse 1 (0:25 to 0:53)
G|----------------------------------------------|
D|/555555555555555555555555555555555555555555555|
A|----------------------------------------------|
E|----------------------------------------------|

Main Riff (0:53 to 1:05)
G|-----------------------------------------|
D|10h12-12-0-0-0-10h12-12-0-0-12-10-12--12-|
A|------------------------------------10---|
E|-----------------------------------------|

Fill (1:06)
G|---|
D|10\|
A|---|
E|---|

Main Riff (1:07 to 1:21)
G|-----------------------------------------|
D|10h12-12-0-0-0-10h12-12-0-0-12-10-12--12-|
A|------------------------------------10---|
E|-----------------------------------------|

Ending Riff (1:34 to 2:58)
G|---------------------------------|
D|---------------------------------|
A|33333333/555555550000000000000000|
E|---------------------------------|
Добавлено: 01.05.2012
Другие материалы по этой песне:
  • Аккорды и текст

Страница создана 01.05.2012
http://primanota.ru/pretty-girls-make-graves/grandmother-wolf-chords.htm
Привет, Гость.
Предлагаем пройти революционный курс по гитаре.
Подарок от PrimaNota.Ru, забирай!