PrimaNota.ru - самый крупный в мире бесплатный архив песенных текстов, аккордов, табулатур и нот


Pretty Girls Make Graves - Bring It On The Golden Pond - текст песни, таба, бас-таба, видео

Регистрация Запомнить меня
Войти через:  Facebook Google Twitter Vk Yandex Mail.ru

Pretty Girls Make Graves - Bring It On The Golden Pond - текст песни, таба, бас-таба, видео

Печатать
Просмотров: 145
Уроки эстрадного вокала в Санкт-Петербурге
----------------------------------------------------------------------------
		Bring It On Golden Pond - Pretty Girls Make Graves
----------------------------------------------------------------------------

Intro (bass)
G|--------------------------------------------------------------------------|
D|--------------------------------------------------------------------------|
A|--5-5-5-5-4-4-4-4-3-3-3-3-------------------------------------------------|
E|--------------------------3-3-3-3-3-3-3-3---------------------------------|

Main riff
e|--------------------------------------------------------------------------|
B|--------------------------------------------------------------------------|
G|--------------------------------------------------------------------------|
D|---------3p0---3p0---------3p0---3p0---------3p0---3p0----3p0---3p0-------|
A|--5--555-----5------4--444-----4------3--333-----3------------------------|
E|--------------------------------------------------------3-----2-----------|

Break
e|--------------------------------------------------------------------------|
B|--------------------------------------------------------------------------|
G|--------------------------------------------------------------------------|
D|--2h3p0-------------------------------------------------------------------|
A|--------------------------------------------------------------------------|
E|--------------------------------------------------------------------------|

Main riff Guitar 2
e|--------------------------------------------------------------------------|
B|---------------------------------------------------222222-333-------------|
G|--------------------------------------------------------------------------|
D|----3---3---3---3---3---3---3p2p0---3---3---3---3-------------------------|
A|--5---5---5---5---4---4---4-------3---3---3---3---------------------------|
E|--------------------------------------------------------------------------|

Bridge
Guitar 1
e|--------------------------------------------------------------------------|
B|--------------------------------------------------------------------------|
G|---7----------------------------------------------------------------------|
D|--------------------------------------------------------------------------|
A|---5----------------------------------------------------------------------|
E|--------------------------------------------------------------------------|

Guitar 2
e|--------------------------------------------------------------------------|
B|-----------15----------15-------------------------------------------------|
G|--14p12-14----14p12-14----14p12-14----------------------------------------|
D|--------------------------------------------------------------------------|
A|--------------------------------------------------------------------------|
E|--------------------------------------------------------------------------|

Outro
Guitar 1
e|--------------------------------------------------------|-----------------|
B|--------------------------------------------------------|-----------------|
G|--------------------------------------------------------|-----------------|
D|---------3p0---3p0---------3p0---3p0---------3p0---3p0--|----3p0---3p0----|
A|--5--555-----5------4--444-----4------3--333-----3------|-----------------|
E|--------------------------------------------------------|--1-----2--------|
                                                           only every 4th bar

Guitar 2
e|----------------------------------------------------|----------------------|
B|----------------------------------------------------|---222222-333---------|
G|----------------------------------------------------|----------------------|
D|----3---3---3---3---3---3---3p2p0---3---3---3---3---|----------------------|
A|--5---5---5---5---4---4---4-------3---3---3---3-----|----------------------|
E|----------------------------------------------------|----------------------|
							only every 4th bar
Добавлено: 06.06.2012
Другие материалы по этой песне:
  • Аккорды и текст

Страница создана 14.03.2012
http://primanota.ru/pretty-girls-make-graves/bring-it-on-the-golden-pond-chords.htm
Привет, Гость.
Предлагаем пройти революционный курс по гитаре.
Подарок от PrimaNota.Ru, забирай!