PrimaNota.ru - самый крупный в мире бесплатный архив песенных текстов, аккордов, табулатур и нот


Pretty Girls Make Graves - Bring It On - таба, видео

Регистрация Запомнить меня
Войти через:  Facebook Google Twitter Vk Yandex Mail.ru

Pretty Girls Make Graves - Bring It On - таба, видео

Печатать
Просмотров: 87
Bring it On Golden Pond
(by Pretty Girls Make Graves)
 
Tabbed by Dylan Muir
 
Drum Intro
 
Bass Guitar:
 
G------------------------------------------------------
D------------------------------------------------------
A--5-5-5p0-5p0-4-4-4p0-4p0-3-3-3p0-3p0-10-10-10-10-etc.
E------------------------------------------------------
 
"All we are..."
 
Guitar:
 
E----------------------------------------
B----------------------------------------
G----------------------------------------
D------------3-----------------3---------
A---5-55-5-5---5-5-5--4-44-4-4---4-4-4---
E----------------------------------------
 
E----------------------------------------
B----------------------------------------
G----------------------------------------
D----------3--------3p0-3p0-2h3p0--------
A-3-33-3-3---3-3-3-----------------------
E------------------3---3---3-------------
 
Guitar riff & drum:
 
E--------------------------------
B--------------------------------
G--------------------------------
D--2h3p0-----2h3p0-----2h3p0-----
A--------------------------------
E--------------------------------
 
Industrial Guitar Chords:
 
Whatever is being played is based around 'D'
If you can fake the tone and get the rhythm pretty
close, you probably won't have to nail the notes
exactly like the record.
 
Outro:
 
Maybe you can rig a delay pedal just right...
 
 
 
     
Добавлено: 06.10.2013
Вам также может быть интересно:
Другие материалы по этой песне:
  • Аккорды и текст

Страница создана 06.10.2013
http://primanota.ru/pretty-girls-make-graves/bring-it-on-chords.htm
Привет, Гость.
Предлагаем пройти революционный курс по гитаре.
Подарок от PrimaNota.Ru, забирай!