PrimaNota.ru - самый крупный в мире бесплатный архив песенных текстов, аккордов, табулатур и нот


Pretty Boy Floyd - Wild Angels - таба, видео

Регистрация Запомнить меня
Войти через:  Facebook Google Twitter Vk Yandex Mail.ru

Pretty Boy Floyd - Wild Angels - таба, видео

Печатать
Просмотров: 147
Уроки эстрадного вокала в Санкт-Петербурге
Wild Angels by Pretty Boy Floyd (Most of the riffs)

Intro into 1st Verse (0:00-0:30)
|--------------------------------------------------------|
|------8---------------8-------------8-----------8-------|
|---7-----7---------7-----7-------7----7-------7----7----|     X6
|5---------------4---------------------------------------|
|-------------------------------7-----------5------------|
|--------------------------------------------------------|

(0:30-0:35)
|--------------------|   |-----0--------0---------|
|----1-------3--1----|   |-------3--------3-------|
|------0-----------0-|   |---------2--------2-----|
|-2------2-----------|   |-0----------------------|
|--------------------|   |------------------------|
|--------------------|   |------------------------|

(0:35-0:49)
|----------------------------------------------------|
|------8---------------8-----------8----------8------|
|---7-----7---------7-----7------7----7-----7----7---| X3
|5---------------4-----------------------------------|
|------------------------------7----------5----------|
|----------------------------------------------------|

(0:50-0:54)
|--------------------|   |-----0--------0---------|
|----1-------3--1----|   |-------3--------3-------|
|------0-----------0-|   |---------2--------2-----|
|-2------2-----------|   |-0----------------------|
|--------------------|   |------------------------|
|--------------------|   |------------------------|

(0:54-0:59)  All Natural Harmonics
|----------------------------|
|-(12)---(5)-----------------|
|----------------(5)---(7)---|
|----------------------------|
|----------------------------|
|----------------------------|

(0:59-1:08) Pre-Chorus
|-------------------------------|
|-------------------------------|
|-5----7----9----7-7---5---7-7--|
|-5----7----9----7-7---5---7-7--|
|-3----5----7----5-5---3---5-5--|
|-------------------------------|

(1:08-1:13)
|-------------------|     |-----------3--2--0--|
|------------3------|     |-2-2-2-2---3--2-----|     
|-5-5-5-5------5----|     |-3-3-3-3------------|
|-5-5-5-5--------5--|     |-0-0-0-0------------|
|-3-3-3-3-----------|     |--------------------|
|-------------------|     |--------------------|
 P.M___                     P.M.___

(1:13-1:18)
|--------------------|
|--------------------|
|-9-9-9-9--5-5--5-5--|
|-9-9-9-9--5-5--5-5--|
|-7-7-7-7--3-3--3-3--|
|--------------------|

Chorus: (1:18-1:36)
|-----------------------------------------------------------------------|
|-----------------------------------------------------------------------|
|-12--11--9--9--7/----12--11--9--9--9--9/-11/--12--11--9--9--9--7--5--7-|
|-12--11--9--9--7/----12--11--9--9--9--9/-11/--12--11--9--9--9--7--5--7-|
|-10--9---7--7--5/----10--9---7--7--7--7/-9/---10--9---7--7--7--5--3--5-|
|-----------------------------------------------------------------------|

2nd Verse (1:36-1:55)
|----------------------------------------------------|
|------8---------------8-----------8----------8------|
|---7-----7---------7-----7------7---7-----7-----7---| X4
|5---------------4-----------------------------------|
|------------------------------7----------5----------|
|----------------------------------------------------|

(1:56-2:00)
|--------------------|   |-----0--------0---------|
|----1-------3--1----|   |-------3--------3-------|
|------0-----------0-|   |---------2--------2-----|
|-2------2-----------|   |-0----------------------|
|--------------------|   |------------------------|
|--------------------|   |------------------------|

(2:00-2:14)
|-------------------------------------------------------|
|------8---------------8-----------8-----------8--------|
|---7-----7---------7-----7------7----7-----7----7------| X3
|5---------------4--------------------------------------|
|------------------------------7----------5-------------|
|-------------------------------------------------------|

(2:15-2:19)
|--------------------|   |-----0--------0---------|
|----1-------3--1----|   |-------3--------3-------|
|------0-----------0-|   |---------2--------2-----|
|-2------2-----------|   |-0----------------------|
|--------------------|   |------------------------|
|--------------------|   |------------------------|

(2:19-2:24)  All Natural Harmonics
|---------------------------|
|-(12)---(5)----------------|
|----------------(5)---(7)--|
|---------------------------|
|---------------------------|
|---------------------------|

(2:24-2:33) Pre-Chorus
|------------------------------|
|------------------------------|
|-5----7----9----7-7---5---7-7-|
|-5----7----9----7-7---5---7-7-|
|-3----5----7----5-5---3---5-5-|
|------------------------------|


(2:33-2:38)
|-------------------|     |-----------3--2--0--|
|------------3------|     |-2-2-2-2---3--2-----|     
|-5-5-5-5------5----|     |-3-3-3-3------------|
|-5-5-5-5--------5--|     |-0-0-0-0------------|
|-3-3-3-3-----------|     |--------------------|
|-------------------|     |--------------------|
 P.M___                    P.M.___

(2:38-2:43)
|-------------------|
|-------------------|
|-9-9-9-9--5-5--5-5-|
|-9-9-9-9--5-5--5-5-|
|-7-7-7-7--3-3--3-3-|
|-------------------|

Chorus: (2:43-3:02)
|---------------------------------------------------------------------------|
|---------------------------------------------------------------------------|
|-12-11-9-9-7/--12-11-9-9-9-9/-11/--12-11-9-9-9-7--5-5-5-5-5-5-5-7-7-7-7-7-7|
|-12-11-9-9-7/--12-11-9-9-9-9/-11/--12-11-9-9-9-7--5-5-5-5-5-5-5-7-7-7-7-7-7|
|-10-9--7-7-5/--10-9--7-7-7-7/-9/---10-9--7-7-7-5--3-3-3-3-3-3-3-5-5-5-5-5-5|
|---------------------------------------------------------------------------|
                                                   P.M._________

Solo (3:02-3:09)
|--------------------------------------19p15-----15h19p15-------|
|--------------------------------------------15-----------17-15-|
|-------------------------12------------------------------------|
|-----------12------12h14----12h14p12---------------------------|
|-----12h14----12h14--------------------------------------------|
|-/15-----------------------------------------------------------|

(3:09-3:15)
|--------------------------------------------------------------|
|--------------------------------------------------------------|
|-12h14-12h14p12---------------------------------12-11---------|
|----------------14--12h14p12-----------12-------------12------|
|---------------------------------12h14----12h14---------------|
|-----------------------------/15------------------------------|

|--15p12-15p12-15p12------|
|--------------------12---|
|----------------------14-|
|-------------------------|
|-------------------------|
|-------------------------|

(3:16-3:21-) 
|------------------------------------------|
|------------------------------------------|
|------------------------------------------|
|-14p12--12---16p12--12---14p12---12--14v--|
|------12----------12----------12----------|
|------------------------------------------|

(Let the last note ring)
|--------------------------12h15-12h15-15h17p15-|
|---------------------12h15---------------------|
|----------------12h14--------------------------|
|-----------12h14-------------------------------|
|------12h14------------------------------------|
|-12h15-----------------------------------------|


Post solo (3:21-3:30)
|---------------------------|
|---------------------------|
|-12-12--9-9--5-5-5-5-5-7-7-|
|-12-12--9-9--5-5-5-5-5-7-7-| X2
|-10-10--7-7--3-3-3-3-3-5-5-|
|---------------------------|

Post solo cont. (3:30-3:34)
|----------------------------------------------|
|----------------------------------------------|
|----------------------------------------------|
|-12-14-12--12-14-14-12---5-5-5-7-(7)-(7)-5----|
|-10-10-10--10-10-10-10---3-3-3-5--------------|
|----------------------------------------------|
                                  P.H.___

Post solo cont. (3:34-3:50)
|--------------------------------------------|
|--------------------------------------------|
|--------------------------------------------|
|-12-14-12--12-14-14-12---5-5-5-5-7-7-7------| x3
|-10-10-10--10-10-10-10---3-3-3-3-5-5-5------|
|--------------------------------------------|

(3:50-3:54)
|----------------------------------|
|----------------------------------|
|----------------------------------|
|-5-5-5-5-5-5-5-5-7-7-7-7-7-7-7-7--|
|-3-3-3-3-3-3-3-3-5-5-5-5-5-5-5-5--|
|----------------------------------|
P.M._________

Chorus: (3:54-4:34)  (Repeat)
|---------------------------------------------------------------------------|
|---------------------------------------------------------------------------|
|-12-11-9-9-7/--12-11-9-9-9-9/-11/--12-11-9-9-9-7--5-5-5-5-5-5-5-7-7-7-7-7-7|
|-12-11-9-9-7/--12-11-9-9-9-9/-11/--12-11-9-9-9-7--5-5-5-5-5-5-5-7-7-7-7-7-7|
|-10-9--7-7-5/--10-9--7-7-7-7/-9/---10-9--7-7-7-5--3-3-3-3-3-3-3-5-5-5-5-5-5|
|---------------------------------------------------------------------------|

                                                  
(4:34-4:41)
|-20--19--17/--15--|
|------------------|
|------------------|
|------------------|
|------------------|
|------------------|


Outro: (4:41-)
|---------------------------------------3-------3-------3-----3--|
|----8--------8--------8--------8-----3---3---3---3---3---3---3--|
|--7---7----7---7----7---7----7---7---------------------------0--|
|5--------4---------------------------------------------------0--|
|------------------7--------5--------3------2-------0---------2--|
|-------------------------------------------------------------3--|

|-------------------------------------------------------3--3----3----3-|
|-20-20-20-19-19-19-17-17-17-15-15-15--13-12-10-10h12---3--3----3----3-|
|-------------------------------------------------------0--0----0----0-|
|-------------------------------------------------------0--0----0----0-|
|-------------------------------------------------------2--2h3--2h3--2-|
|-------------------------------------------------------3--------------|
Добавлено: 27.10.2013
Другие материалы по этой песне:

Страница создана 30.04.2012
http://primanota.ru/pretty-boy-floyd/wild-angels-chords.htm
Привет, Гость.
Предлагаем пройти революционный курс по гитаре.
Подарок от PrimaNota.Ru, забирай!