PrimaNota.ru - самый крупный в мире бесплатный архив песенных текстов, аккордов, табулатур и нот


Pretty Boy Floyd - Rock And Roll - бас-таба, видео

Регистрация Запомнить меня
Войти через:  Facebook Google Twitter Vk Yandex Mail.ru

Pretty Boy Floyd - Rock And Roll - бас-таба, видео

Печатать
Просмотров: 154
-------------------------------------------------------------------------------
       Rock and Roll (Is Gonna Set The Night On Fire) - Pretty Boy Floyd 
-------------------------------------------------------------------------------

Tabbed by: ChrisT

From the Album: Leather Boyz With Electric Toyz (1989) 

Tuning: Standard

Intro 
G|-----------------------------------|
D|-----------------------------------|
A|---------------------------7-7-----|
E|-----------------------------------|

G|---------------------------------------------------------------------------|
D|---------------------------------------------------------------------------|
A|---------------------------------------------------------------------------|
E|---------------------------0-0-------------------------7---7---7-----------|

G|--------------------------------------------------------------------14\2---|
D|---------------------------------------------------------------------------|
A|--12-12-12-12-12-12-12-12-12-12-12-12-12-12-12-12-12-12-12-12-12-12--------|
E|---------------------------------------------------------------------------|

Verse 1
G|----------------------------------------------------------------------|
D|----------------------------------------------------------------------|
A|----------------------------------------------------------------------|
E|---0-0-0-0-0-0-0-0-0-0-0-0-0-0-0-0-0-0-0-0-0-0-0-0-0-0-0-0-0-0-0-0----|

G|----------------------------------------------------------------------|
D|----------------------------------------------------------------------|
A|---------------------------------------------------------------7------|
E|---7-7-7-7-7-7-7-7-7-7-7-7-5---5---0-0-0-0-0-0-0-0-0-0-0-0-0-0--------|

G|----------------------------------------------------------------------|
D|----------------------------------------------------------------------|
A|----------------------------------------------------------------------|
E|---0-0-0-0-0-0-0-0-0-0-0-0-0-0-0-0-0-0-0-0-0-0-0-0-0-0-0-0-0-0-0-0----|

G|----------------------------------------------------------------------|
D|---------------------------------------5-5-----5-5-----2-2-3-3-5-5----|
A|---2-2-2-2-2-2-2-2-2-2-2-2-2-2-2-2-3-3-----3-3-----3-3----------------|
E|----------------------------------------------------------------------|

G|-------------------------------------|
D|-------------------------------------|
A|---5-5-5-5-5-5-5-5-5-----------------|
E|-------------------------------------|

Chorus
G|---------------------------------------------------------|-------------|
D|o------------------------------------------7-7-7-7-7----o|-------------|
A|o-------------------------------------------------------o|----7\-------|
E|---0---------------2---------------5---------------------|--------0----|

Verse 2
G|----------------------------------------------------------------------|
D|----------------------------------------------------------------------|
A|----------------------------------------------------------------------|
E|---0-0-0-0-0-0-0-0-0-0-0-0-0-0-0-0-0-0-0-0-0-0-0-0-0-0-0-0-0-0-0-0----|

G|----------------------------------------------------------------------|
D|----------------------------------------------------------------------|
A|---------------------------------------------------------------7------|
E|---7-7-7-7-7-7-7-7-7-7-7-7-5---5---0-0-0-0-0-0-0-0-0-0-0-0-0-0--------|

G|----------------------------------------------------------------------|
D|----------------------------------------------------------------------|
A|----------------------------------------------------------------------|
E|---0-0-0-0-0-0-0-0-0-0-0-0-0-0-0-0-0-0-0-0-0-0-0-0-0-0-0-0-0-0-0-0----|

G|----------------------------------------------------------------------|
D|---------------------------------------5-5-----5-5-----2-2-3-3-5-5----|
A|---2-2-2-2-2-2-2-2-2-2-2-2-2-2-2-2-3-3-----3-3-----3-3----------------|
E|----------------------------------------------------------------------|

G|-------------------------------------|
D|-------------------------------------|
A|---5-5-5-5-5-5-5-5-5-----------------|
E|-------------------------------------|

Chorus
G|---------------------------------------------------------|
D|o------------------------------------------7-7-7-7-7----o|
A|o-------------------------------------------------------o|
E|---0---------------2---------------5---------------------|

G|--------------------------------------------------------------------|
D|---------------------------------------------------2/14-14-14-------|
A|--------------------------------------------------------------------|
E|---0-0-0-0-0-0-0-0-2-2-2-2-2-2-2-2-5-5-5-5-5-5-5-5------------------|

G|----------------------------------------------|
D|-------------------------------------4---6----|
A|---7---7-7---7-----------4---5---7------------|
E|---------------7-5---7------------------------|

Guitar Solo
G|------------------------------------------------------------------------|
D|o---7-7-4-4-7-7-4-4-7-7-4-4-7-7-4-4------------------------------------o|
A|o-----------------------------------7-7-4-4-7-7-4-4-7-7-4-4-7-7-4-4----o|
E|------------------------------------------------------------------------|

G|--------------------------------------|
D|-----------------9-----------7--------|
A|---------------9----------------------|
E|---7---7---7---------5---5------------|

   Whoa Oh Whoa....
G|--------------------------------------|
D|--------------------------------------|
A|--------------------------------------|
E|---X-X-X-X-X-X-X-X-X-X-X-X-X-X-X-X----|

   Rock....
G|--------------------------------------|
D|---------------------------7----------|
A|--------------------------------------|
E|---7---7---7-7-7---5---5--------------|

Chorus
G|----------------------------------------------------------|
D|o-------------------------------------------7-7-7-7-7----o|
A|o--------------------------------------------------------o|
E|----0---------------2---------------5---------------------|

G|--------------------------------------------------------------------|
D|---------------------------------------------------2/14-14-14-------|
A|--------------------------------------------------------------------|
E|---0-0-0-0-0-0-0-0-2-2-2-2-2-2-2-2-5-5-5-5-5-5-5-5------------------|

G|--------------------------------------------------------------------|
D|--------------------------------------------------------------------|
A|---7\------------4--------------------------------------------------|
E|-------------------------------5------------0-----------------------|

G|-----------------------------------------------|
D|-----------------------------------------------|
A|-----------------------------------------------|
E|---0-------------------------------------------|

Добавлено: 15.06.2015
Другие материалы по этой песне:
  • Аккорды и текст

Страница создана 15.06.2015
http://primanota.ru/pretty-boy-floyd/rock-and-roll-chords.htm
Привет, Гость.
Предлагаем пройти революционный курс по гитаре.
Подарок от PrimaNota.Ru, забирай!