PrimaNota.ru - самый крупный в мире бесплатный архив песенных текстов, аккордов, табулатур и нот


Preston Reed - View From Afar - таба, видео

Регистрация Запомнить меня
Войти через:  Facebook Google Twitter Vk Yandex Mail.ru

Preston Reed - View From Afar - таба, видео

Печатать
Просмотров: 67
Preston Reed
View from Afar

I have looked for this tab everywhere and have yet to find it so Ive decided to tab it myself. 
This is my first attempt at a guitar tablature so please understand any mistakes.
I have attempted to space it out with regards to timing but listen to the cd if you
cant follow it. I have yet to add the ending few chords but they sound pretty simple
anyway. Any problems/suggestions email me at cs01ogp@brunel.ac.uk  mailto:cs01ogp@brunel.ac.uk>  If I have time I'll update.

This tab is all my own work.
 
###############
Tabbed by Ozz P  02 October 2003
###############

--2-----2---4-----5-----4---2---0---------0-2-----
----2-2-------2-2---3-------------------0-------2-
----------------------2-------2-------------------
--1-------1-------0-------0-----------2-------2---
----------------------------------4-------4-------
--------------------------------------------------
        *play this once
----------2----|----------------------0---2---0---
---------------|3p2---0-------3-------------------
----1-3-----1-2|----------2-----------------------
---------------|----4-------2-------2-------2-----
---------------|2-------2-------3-------3-------0-
2-------2------|----------------------------------
              * 
------0-------||-----------------------------------
--------------||-----------------------------------
--2-------2---||--Repeat but with below------------
2-------2-----||-----------------------------------
----0-------0-||-----------------------------------
--------------||-----------------------------------

*
------------------0-------------------------------|----
3p2---0-------0-------1---2-------------3p2-------|----
----------2-------------------2-------2-2-----2---|----
----4-------2-------2-------2-------2-------2-----|----
2-------2-----------------------0-------0-------0-|----
----------------3-------4-------------------------|----
 
-------------------------------------------------------
----3p2---0-------2-----------------3p2---0-------2----
--2-----------2-------------------2-----------2--------
2-------2-------2-------2-------2-------2-------2------
----------------------------------0-----------------0--
----3-------3-------2-------2-------3-------3----------
 
-------------------------------0------------------------
-------------3p2---0-------0-------1---2-------------2h3
-----------2-2---------2-------------------2-------2----
-2-------2---0---2-------2-------2-------2-------2------
-----0-------0-------4-----------------------0-------0--
-----------------------------3-------4------------------
 
---0---------------------------------------------H---------------------------
---------------------------3p2---0-------2-------A---------3p2---0-------2----
-------------------------2-----------2-----------R-------2-----------2--------
-2---------------------2-------2-------2-------2-M-----2-------2-------2------
-----0-------------------------------------------O-------0-----------------0--
---------------------------3-------3-------2-----N-2-------3-------3----------
 
---H---------------------------0--------------------------------||---
---A---------3p2---0-------0-------1---2-------------3p2--------||---
---R-------2-2---------2-------------------2-------2-------2----||--- Back to Beg.
-2-M-----2---0---2-------2-------2-------2-------2-------2------||---
---O-0-------0-------4-----------------------0-------0-------0--||---
---N-------------------------3-------4--------------------------||---
 
Progression
Play whole of above
repeat once (practically the same except for a few more harmonics and struck chords here
and there)


 
     
Добавлено: 23.11.2013
Вам также может быть интересно:
Другие материалы по этой песне:
  • Аккорды и текст

Страница создана 16.11.2013
http://primanota.ru/preston-reed/view-from-afar-chords.htm
Привет, Гость.
Предлагаем пройти революционный курс по гитаре.
Подарок от PrimaNota.Ru, забирай!