PrimaNota.ru - самый крупный в мире бесплатный архив песенных текстов, аккордов, табулатур и нот


Pressive - In Scent - таба, видео

Регистрация Запомнить меня
Войти через:  Facebook Google Twitter Vk Yandex Mail.ru

Pressive - In Scent - таба, видео

Печатать
Просмотров: 100
Artist: Pressive
Song: In Scent

Tabbed by: javo_rockstar

Mail: javo_rockstar@hotmail.com

tuning
gtr.1 Javo (low to high) D, A, d, a, a, E
gtr.2 Leo (low to high) D, A, d, G, B, E

Intro
gtr.1 Javo
gtr.2 Leo
||--------------------------------------------------------------|
||--------------------------------------------------------------|
||--------------------------------------------------------------|
||--0-0-1-0-00-00-0-00-1-0-00-00-0-00-1-0-00-00-0-00-1-0-00-00--|
||--0-0-1-0-00-00-0-00-1-0-00-00-0-00-1-0-00-00-0-00-1-0-00-00--|
||--0-0-1-0-00-00-0-00-1-0-00-00-0-00-1-0-00-00-0-00-1-0-00-00--|
Pm  . .   . .. .. . ..   . .. .. . ..   . .. .. . ..   . .. ..

-----------------------------------------------------------------|
-----------------------------------------------------------------|
-----------------------------------------------------------------|
--0-00-6-0-00-00-0-00-1-0-00-00-0-00-6-0-00-00-0-00-1-0-00-00-0--|
--0-00-6-0-00-00-0-00-1-0-00-00-0-00-6-0-00-00-0-00-1-0-00-00-0--|
--0-00-6-0-00-00-0-00-1-0-00-00-0-00-6-0-00-00-0-00-1-0-00-00-0--|
  . ..   . .. .. . ..   . .. .. . ..   . .. .. . ..   . .. .. .

-------------------------------------------------||
-------------------------------------------------||
-------------------------------------------------||
--0-------------------------------5---3---2---5--||
--0-------------------------------5---3---2---3--||
--0-------------------------------5---3---2------||


Verse
gtr.1 Javo (clean)
||--0-00000-00000-00000-00000-00000-0000-0--0-0-0--   --|
||--0-00000-00000-00000-00000-00000-0000-0--0-0-0--   --|
||--5-55555-55555-55555-55555-55555-5555-10-8-7-3— x2 --|
||--0-00000-00000-00000-00000-00000-0000-0--0-0-0--   --|
||--5-55555-55555-55555-55555-55555-5555-10-8-7-3--   --|
||--0-00000-00000-00000-00000-00000-0000-0--0-0-0—    --|

--0-00000-00000-00000-00000-00000-0000-0--0-0-0--0-00000-00000-00000-00000---|
--0-00000-00000-00000-00000-00000-0000-0--0-0-0--0-00000-00000-00000-00000---|
--5-55550-00007-77770-00008-88880-0000-10-8-7-3--5-55550-00007-77770-00008---|
--0-00000-00000-00000-00000-00000-0000-0--0-0-0--0-00000-00000-00000-00000---|
--5-55550-00007-77770-00008-88880-0000-10-8-7-3--5-55550-00007-77770-00008---|
--0-00000-00000-00000-00000-00000-0000-0--0-0-0--0-00000-00000-00000-00000---|

--00000-0000--||
--00000-0000--||
--88880-0000--||
--00000-0000--||
--88880-0000--||
--00000-0000--||

Verse 2 (dist)
gtr.1 Javo
gtr.2 Leo

||-----------------------------------------------------------------------|
||----------------|------------------------------------------------------|
||----------------|------------------------------------------------------| x4
||--5---3---2---5-|-7---------8-7-------10-8-7-----------5--3--2--5------|
||--5---3---2---3-|-5-00-00-0-6-5-00-00-8--6-5-00-00-0-0-5--3--2--3------|
||--5---3---2-----|---00-00-0-----00-00--------00-00-0-0-5--3--2---------|
Pm                    .. .. .     .. ..        .. .. . .


Chorus
gtr.1 Javo
 (lightly distorted)                   (heavy dist)
||--0--------0---|----------------|-------------------------------|------|
||--0--------0---|----------------|-------------------------------|---8--|
||--5--------3---|---1--------0---|---5-------7-------8-------4---|---8--|
||--3--------2---|---3--------2---|-------------------------------|------|
||--5--------3---|---1--------0---|---5-------7-------8-------4---|------|
||---------------|----------------|-------------------------------|------|

gtr.2 Leo
||---------------|----------------|-------------------------------|------|
||---------------|----------------|-------------------------------|------|
||---------------|---3--------2---|---2-------5-------3-------2---|---2--|
||---------------|---3--------2---|---0-------5-------3-------2---|---0--|
||---------------|---1--------0---|---0-------3-------1-------0---|---0--|
||---------------|----------------|---0---------------------------|---0--|

gtr.1 Javo
----------------------|---------------------------------------------------||
---8---10--8------8---|--10--8-------8---10-------------------------------||
---7---8---8------7---|--8---8-------7---8---10-10---10-10---8-8---7-7-7--||
----------------------|---------------------------------------------------||
----------------------|----------------------10-10---10-10---8-8---7-7-7--||
----------------------|----------------------------00------00----00-------||
                                       PM          ..      ..    ..
gtr.2 Leo
----------------------|---------------------------------------------------||
----------------------|---------------------------------------------------||
---5-------3------2---|------2-------5-------3--3-----3--3---2-2---2-2-2--||
---5-------3------2---|------0-------5-------3--3-----3--3---2-2---2-2-2--||
---3-------1------0---|------0-------3-------1—-1-----1--1---0-0---0-0-0--||
----------------------|------0---------------------00------00----00-------||
                                       PM          ..      ..    ..


Interlude
gtr.1 Javo
||--------------------------------------------------------------|
||--------------------------------------------------------------|
||--------------------------------------------------------------| x2
||--------------------------------------------------------------|
||-----------5-----8-----3-5-3-----------5-----8---3-5-3--------|
||--0----0--0--0--0--0--0------3-5-3-0--0--0--0---0------3-5-3--|

gtr.2 Leo
||--------------------------------------------------------------|
||--------------------------------------------------------------|
||--------------------------------------------------------------| x2
||--------------------------------------------------------------|
||--------------------------------------------------------------|
||--0--------------6-----------------7--------------------------|


gtr.1 Javo
gtr.2 Leo
---------------------------------------------------------------------------|
---------------------------------------------------------------------------|
---------------------------------------------------------------------------|
--5/7----3---5/7----3---7\5----3---7\5----3---7-----3---5-----3---3-----3--|
--3/5----3---3/5----3---5\3----3---5\3----3---5-----3---3-----3---1-----3--|
-----00-03-00---00-03-00---00-03-00---00-03-00--00-03-00--00-03-00--00-03--|
PM     .. .  ..   .. .  ..   .. .  ..   .. .  ..  .. .  ..  .. .  ..  ..  .


gtr.1 Javo
gtr.2 Leo
-------------||
-------------||
-------------||
----2-----3--||
----0-----3--||
--00--00-03--||
Pm..  .. .


2nd Chorus
gtr.1 Javo
||--0-------3-------1-------0------------------------------------------|
||--0-------3-------1-------0---------------------------------------8--|
||--0-------3-------1-------0-------5-------7-------8-------4-------8--|
||--0-------5-------3-------2------------------------------------------|
||--0-------3-------1-------0-------5-------7-------8-------4----------|
||--0------------------------------------------------------------------|

gtr.2 Leo
||---------------------------------------------------------------------|
||---------------------------------------------------------------------|
||--2-------5-------3-------2-------2-------5-------3-------2-------2--|
||--0-------5-------3-------2-------0-------5-------3-------2-------0--|
||--0-------3-------1-------0-------0-------3-------1-------0-------0--|
||--0-------------------------------0-------------------------------0--|


gtr.1 Javo
-------------------------------------------------------------------------||
---8---10--8------8----10---8-------8---10-------------------------------||
---7---8---8------7----8----8-------7---8---10-10---10-10---8-8---7-7-7--||
-------------------------------------------------------------------------||
--------------------------------------------10-10---10-10---8-8---7-7-7--||
--------------------------------------------------00------00----00-------||
                                      PM          ..      ..    ..
gtr.2 Leo
-------------------------------------------------------------------------||
-------------------------------------------------------------------------||
---5-------3------2---------2-------5-------3--3-----3--3---2-2---2-2-2--||
---5-------3------2---------0-------5-------3--3-----3--3---2-2---2-2-2--||
---3-------1------0---------0-------3-------1—-1-----1--1---0-0---0-0-0--||
----------------------------0---------------------00------00----00-------||
                                      PM          ..      ..    ..


Outro
gtr.1 Javo
gtr.2 Leo
||---------------------------|-------------------------|------------------|
||----------(x2)-------------|----------(x4)-----------|------------(X3)--|
||---------------------------|-------------------------|------------------|
||--0---------8--7--10-5--7--|---0-0--0-0--0-0--0-0-1--|---12-10---12-10--|
||--0---------6--5--8--3--5--|---0-0-00-0-00-0-00-0-1--|--012-10--012-10--|
||--0------------------------|---0-0-00-0-00-0-00-0-1--|--012-10--012-10--|
                              PM     .    .    .          .       .

---------------------|-----------------------------------------------||
---------------------|-----------------------------------------------||
---------------------|-----------------------------------------------||
---12-10---12-10-13--|--------------------------------------------1--||
--012-10--012-10-13--|--------------------------------------------1--||
--012-10--012-10-13--|--0-12p0-10-0-12p0-10-0-12p0-10-0-12p0-10p0-1--||
  .       .
Добавлено: 03.04.2012
Другие материалы по этой песне:
  • Аккорды и текст

Страница создана 03.04.2012
http://primanota.ru/pressive/in-scent-chords.htm
Привет, Гость.
Предлагаем пройти революционный курс по гитаре.
Подарок от PrimaNota.Ru, забирай!