PrimaNota.ru - самый крупный в мире бесплатный архив песенных текстов, аккордов, табулатур и нот


Preson Phillips - What Breadth - аккорды и текст, видео

Регистрация Запомнить меня
Войти через:  Facebook Google Twitter Vk Yandex Mail.ru

Preson Phillips - What Breadth - аккорды и текст, видео

Печатать
Просмотров: 188
What Breadth
Preson Phillips
Standard Tuning Capo 6

The chords have a rapid 12345 rest 12345 feel
Getting the exact sound probably needs finger picks but you can replicate the 
sound by strumming low-low-low-low-high

F (B)  Am (D#m)  G (C#)  G
--3--  ----    --3--    --3-
1----  1---    --3--    --3-
-2---  -2--    ---4-    ----
--3--  -2--    ----5    ----
-----  ----    -----    -2--
-----  ----    -----    --3-

main riff
-------------------------------------------------|
---1--1--1--1--1--1--1--1--1--1--1--1--1--1--1--1|
--0--0--0--0--0--0--0--0--0--0--0--0--0--0--0--0-|
-3--2--------3--2--------3--2--------3--2--------|
-------3--2--------3--2--------3--2--------3--2--|
-------------------------------------------------|

main riff alt
-------------------------------------------------|
---1--1--1--1--1--1--1--1--1--1--1--1--1--1--1--1|
--0--0--0--0--0--0--0--0--0--0--0--0--0--0--0--0-|
-3--2--------3--2--------3--2-----------2--------|
-------3--2--------3--2--------3--2--0-----3--2--|
-------------------------------------------------|

Main riff
F                                   G 
God of light please save us from ourselves, 
F                                 G
from idols quickly filling up our wells. 
        F                     Am
All our hope was spilled like water 
      G                  G
as we turn from truths of old.
        F            Am  
All our lofty places broken,
          G                   G
placed in hands that could not hold! 

Main riff

Main Riff
Father on my knees I stand sustained. 
MAIN RIFF ALT
Before whom all in heav'n and earth are named.
       F                              G        
All my riches turn to sand and all my striving left in vain,
         F                              G 
All your fullness now surrounds me as I comprehend with all the saints. 

     F
What height?
     Am 
What depth?
     G 
What length? 
     G
What breadth?
    F         Am        
Did Christ endure 
       G       G
...and love, in death! 

MAIN RIFF

Glory from your people rises still, 
Generations pass, still mercy fills! 
Oh the God of ancient stories told, who conquers and redeems. 
Come and reconcile your people, burn like fire and spread like seas! 

What height? 
What depth? 
What length? 
What breadth?   
Did Christ endure 
... and love, in death! 

     F             G
Hallelujah... what depth of mercy calls my name? 
     F             G
Hallelujah... what love that knows no boundaries? 
     F Am          G             G
Hallelujah... what depth of mercy calls my name?
     F Am          G             G 
Hallelujah... what love that knows no boundaries? 

MAIN RIFF


http://presonphillips.bandcamp.com/track/what-breadth
https://www.facebook.com/presonphillipsband
Добавлено: 10.08.2015
Вам также может быть интересно:
Другие материалы по этой песне:
  • Аккорды и текст

Страница создана 10.08.2015
http://primanota.ru/preson-phillips/what-breadth-chords.htm
Привет, Гость.
Предлагаем пройти революционный курс по гитаре.
Подарок от PrimaNota.Ru, забирай!