PrimaNota.ru - самый крупный в мире бесплатный архив песенных текстов, аккордов, табулатур и нот


Presidents Of The Usa - Short Wave - бас-таба, видео

Регистрация Запомнить меня
Войти через:  Facebook Google Twitter Vk Yandex Mail.ru

Presidents Of The Usa - Short Wave - бас-таба, видео

Печатать
Просмотров: 67
THE PRESIDENTS OF THE UNITED STATES OF AMERICA "Short Wave"
Taken from the album Love Everybody / Some Postman EP 
Tabbed by Joseph Andreani (gaucher.joseph@laposte.net / www.pusa.fr.st) 
Tabbed for 4-strings bass guitar


verse:

G|--------------------------------------------------------
D|9-9-9-9-9-9-9-9-7-7-7-7-7-7-7-7-------------------------
A|--------------------------------10-10-10-10-10-10-10-10-
E|--------------------------------------------------------

G|--------------------------------(12)*----
D|---------------------------------10-(12)*
A|----------------7-7-7-7-7-7-7-7------10--
E|9-9-9-9-9-9-9-9--------------------------

(*: sounds better with the 5th as a chord)


I got shortwave:

G|--------7-7-------------7-7-------------7-7---------------------
D|9-x-9-x-----9-7-9-x-9-x-----9-7-9-x-9-x-----9-7-----------------
A|------------------------------------------------7-7-7-7-7-7-7-7-
E|----------------------------------------------------------------

G|-------------------------------7-7--------------------
D|-----------------------9-x-9-x-----9-7-6-x-6-x-6-7-8-9
A|10-10-10-10-10-10-10-10-------------------------------
E|------------------------------------------------------

Keyboard part: same as verse

after the keyboard:


G|--------7-7-------------7-7-------------7-7--------------------------
D|9-x-9-x-----9-7-9-x-9-x-----9-7-9-x-9-x-----9-7----------------------
A|------------------------------------------------7-7----7-x-x-7-7----7
E|----------------------------------------------------10-----------10--

G|----------------------
D|14\2-2-2-2-2-2-2/10---
A|--------------------10
E|---------------------- and then the chorus


Outro:

G|-----------------------------------------
D|-----------------------------------------
A|7-7-7-7-7-7-7-7-7-10-10-10-10-10-10-10-10
E|-----------------------------------------

G|---------------------------------------
D|9-9-9-9-9-9-9-9-11-11-11-11-11-11-11-11
A|---------------------------------------
E|---------------------------------------



(3x)


G|-----------------------------------------
D|-----------------------------------------
A|7-7-7-7-7-7-7-7-7-10-10-10-10-10-10-10-10
E|-----------------------------------------

G|--------7-7-------------7-7-------------
D|9-x-9-x-----9-7-9-x-9-x-----9-7-9-etc...
A|----------------------------------------
E|----------------------------------------





     
Добавлено: 02.07.2013
Другие материалы по этой песне:
  • Аккорды и текст

Страница создана 02.07.2013
http://primanota.ru/presidents-of-the-usa/short-wave-chords.htm
Привет, Гость.
Предлагаем пройти революционный курс по гитаре.
Подарок от PrimaNota.Ru, забирай!