PrimaNota.ru - самый крупный в мире бесплатный архив песенных текстов, аккордов, табулатур и нот


Presidents Of The Usa - Fuck California - таба, видео

Регистрация Запомнить меня
Войти через:  Facebook Google Twitter Vk Yandex Mail.ru

Presidents Of The Usa - Fuck California - таба, видео

Печатать
Просмотров: 79
"Fuck California" - The Presidents of the United States of America
Taken from the "Fuck California" single
Tabbed by Tim Millard (millartj@wilkes1.wilkes.edu)
Drop D tuning (DADGBE)

For the sake of simplicity, I'm excluding the top three strings (GBE) from 
this tab, since the Presidents only use the bottom three strings (DAD) on 
their guitars.

Key:

P.M. - Palm mute
/ - Slide
* Mute quickly after being played
(b) - bend slightly

Intro:

D ---0-0-0-3-5----0-0-0-3-5----0-0-0-3-5--0--12^10^12^10/0-
A -0-------3-5--0-------3-5--0-------3-5--0----------------
D -0-------3-5--0-------3-5--0-------3-5--0----------------
                                           *

D ---0-0-0-3-5----0-0-0-3-5----0-0-0-3-5--0-----------
A -0-------3-5--0-------3-5--0-------3-5--0-----------
D -0-------3-5--0-------3-5--0-------3-5--0--5^3^5--3-
                                           *  --P.M.-->

Verse:

D ----0-0-0-3-5----0-0-0-3-5----0-0-0-3-5--0-
A -0--------3-5--0-------3-5--0-------3-5--0-
D -0--------3-5--0-------3-5--0-------3-5--0-
                                            *

Chorus:

D -0-0-0-2-2-2--9-7-7-7-7-7-7-7--0-0-0-2-2-2--9-7-7-7-7-7-7-7-
A -0-0-0-2-2-2--9-7-7-7-7-7-7-7--0-0-0-2-2-2--9-7-7-7-7-7-7-7-
D -0-0-0-2-2-2--9-7-7-7-7-7-7-7--0-0-0-2-2-2--9-7-7-7-7-7-7-7-

D -9-9-9-9-9-9-9-9-9----------0~~--12^10^12(b)^10-0-
A -9-9-9-9-9-9-9-9-9-(etc...)-0~~-----------------0-
D -9-9-9-9-9-9-9-9-9----------0~~-----------------0-
                                                   *

Second Chorus / Outro:

D -2-2-2-4-4-4--11-9-9-9-9-9-9-9--2-2-2-4-4-4--11-9-9-9-9-9-9-9-
A -2-2-2-4-4-4--11-9-9-9-9-9-9-9--2-2-2-4-4-4--11-9-9-9-9-9-9-9-
D -2-2-2-4-4-4--11-9-9-9-9-9-9-9--2-2-2-4-4-4--11-9-9-9-9-9-9-9-

D -11-11-11-11-11-11-11-11-11----------0~~--12^10^12(b)^10/0-0-
A -11-11-11-11-11-11-11-11-11-(etc...)-0~~-------------------0-
D -11-11-11-11-11-11-11-11-11----------0~~-------------------0-
                                                              *


     
Добавлено: 14.07.2013
Другие материалы по этой песне:
  • Аккорды и текст

Страница создана 14.07.2013
http://primanota.ru/presidents-of-the-usa/fuck-california-chords.htm
Привет, Гость.
Предлагаем пройти революционный курс по гитаре.
Подарок от PrimaNota.Ru, забирай!