PrimaNota.ru - самый крупный в мире бесплатный архив песенных текстов, аккордов, табулатур и нот


Presidents Of The Usa - Feather Plucking - аккорды и текст, таба, видео

Регистрация Запомнить меня
Войти через:  Facebook Google Twitter Vk Yandex Mail.ru

Presidents Of The Usa - Feather Plucking - аккорды и текст, таба, видео

Печатать
Просмотров: 138
Уроки эстрадного вокала в Санкт-Петербурге
Feather Plucking
Presidents Of The Usa
		   Feather Pluckin
                                   By POT USA


Intro and Outro                             ***Sounds best on bass***
--------------------------------------------------------------------------------
--------------------------------------------------------------------------------
--------------------------------------------------------------------------------
-8--6----------------6--4--------------------4--2-------------------------------
-4--4--6p4-----------2--2--4p2-----6---------------4p2--------------------------
------------6-------------------4--4--------------------4-----------------------


Verse
----||----------------||--------------------------------------------------------
----||----------------||--------------------------------------------------------
----||*--------------*||--------------------------------------------------------
----||*--------------*||--------------------------------------------------------
----||---8--------9---||--------------------------------------------------------
----||---9--------9---||--------------------------------------------------------


               Pre-Chorus
--------------------------------------------------------------------------------
--------------------------------------------------------------------------------
--------------------------------------------------------------------------------
--------------------------------------------------------------------------------
-------------------6-----9------------------------------------------------------
-------------------4-----7------------------------------------------------------


                              Chorus
----------------------------------||-------------------------------||-----------
----------------------------------||-------------------------------||-----------
----------------------------------||*-----------------------------*||-----------
----------------------------------||*--6-----8-----------4--------*||-----6-----
----------------------------------||---4-----6-----6-----2-----4---||-----4-----
----------------------------------||---------------4-----------2---||-----------



------------------------------------------------|-------------------------------
------------------------------------------------|-------------------------------
------------------------------------------------|-------------------------------
---8-----------4-----------6--------------------|-------------------------------
---6-----6-----2-----4-----4-----------4-----6--|-------------------------------
---------4-----------2-----------------2-----4--|-------------------------------


These are the basic chords. Listen to the CD to find out the timing. Later!

				-Jeff
			guitarist@juno.com

================================================================================
==           Created with a shareware version of the BUCKET 'O TAB            ==
==                  tablature creation software for Windows                   ==
==                           For more information:                            ==
==                          email: gse@ocsystems.com                          ==
==      US Mail: The Bucket, 3176-B5 Summit Square Dr., Oakton, VA 22124      ==
================================================================================     
Добавлено: 04.12.2013
Другие материалы по этой песне:
  • Аккорды и текст

Страница создана 04.05.2012
http://primanota.ru/presidents-of-the-usa/feather-plucking-chords.htm
Привет, Гость.
Предлагаем пройти революционный курс по гитаре.
Подарок от PrimaNota.Ru, забирай!